  0
SECTION
  2
HEADER
  9
$ACADVER
  1
AC1015
  9
$ACADMAINTVER
 70
     6
  9
$DWGCODEPAGE
  3
ANSI_1254
  9
$INSBASE
 10
0.0
 20
0.0
 30
0.0
  9
$EXTMIN
 10
0.0
 20
0.0
 30
0.0
  9
$EXTMAX
 10
279.4
 20
215.9
 30
0.0
  9
$LIMMIN
 10
0.0
 20
0.0
  9
$LIMMAX
 10
279.4
 20
215.9
  9
$ORTHOMODE
 70
     0
  9
$REGENMODE
 70
     1
  9
$FILLMODE
 70
     1
  9
$QTEXTMODE
 70
     0
  9
$MIRRTEXT
 70
     1
  9
$LTSCALE
 40
1.0
  9
$ATTMODE
 70
     1
  9
$TEXTSIZE
 40
3.5
  9
$TRACEWID
 40
1.0
  9
$TEXTSTYLE
  7
Standard
  9
$CLAYER
  8
0
  9
$CELTYPE
  6
ByLayer
  9
$CECOLOR
 62
   256
  9
$CELTSCALE
 40
1.0
  9
$DISPSILH
 70
     0
  9
$DIMSCALE
 40
1.0
  9
$DIMASZ
 40
3.5
  9
$DIMEXO
 40
1.0
  9
$DIMDLI
 40
3.75
  9
$DIMRND
 40
0.0
  9
$DIMDLE
 40
0.0
  9
$DIMEXE
 40
1.0
  9
$DIMTP
 40
0.0
  9
$DIMTM
 40
0.0
  9
$DIMTXT
 40
3.5
  9
$DIMCEN
 40
2.5
  9
$DIMTSZ
 40
0.0
  9
$DIMTOL
 70
     0
  9
$DIMLIM
 70
     0
  9
$DIMTIH
 70
     1
  9
$DIMTOH
 70
     1
  9
$DIMSE1
 70
     0
  9
$DIMSE2
 70
     0
  9
$DIMTAD
 70
     1
  9
$DIMZIN
 70
     0
  9
$DIMBLK
  1

  9
$DIMASO
 70
     1
  9
$DIMSHO
 70
     1
  9
$DIMPOST
  1

  9
$DIMAPOST
  1

  9
$DIMALT
 70
     0
  9
$DIMALTD
 70
     3
  9
$DIMALTF
 40
0.0393700787
  9
$DIMLFAC
 40
1.0
  9
$DIMTOFL
 70
     1
  9
$DIMTVP
 40
0.0
  9
$DIMTIX
 70
     0
  9
$DIMSOXD
 70
     0
  9
$DIMSAH
 70
     0
  9
$DIMBLK1
  1

  9
$DIMBLK2
  1

  9
$DIMSTYLE
  2
ISO-25
  9
$DIMCLRD
 70
     0
  9
$DIMCLRE
 70
     0
  9
$DIMCLRT
 70
     0
  9
$DIMTFAC
 40
1.0
  9
$DIMGAP
 40
1.524
  9
$DIMJUST
 70
     0
  9
$DIMSD1
 70
     0
  9
$DIMSD2
 70
     0
  9
$DIMTOLJ
 70
     0
  9
$DIMTZIN
 70
     0
  9
$DIMALTZ
 70
     0
  9
$DIMALTTZ
 70
     0
  9
$DIMUPT
 70
     0
  9
$DIMDEC
 70
     2
  9
$DIMTDEC
 70
     2
  9
$DIMALTU
 70
     2
  9
$DIMALTTD
 70
     3
  9
$DIMTXSTY
  7
Standard
  9
$DIMAUNIT
 70
     0
  9
$DIMADEC
 70
     2
  9
$DIMALTRND
 40
0.0
  9
$DIMAZIN
 70
     0
  9
$DIMDSEP
 70
    44
  9
$DIMATFIT
 70
     3
  9
$DIMFRAC
 70
     0
  9
$DIMLDRBLK
  1

  9
$DIMLUNIT
 70
     2
  9
$DIMLWD
 70
    -2
  9
$DIMLWE
 70
    -2
  9
$DIMTMOVE
 70
     0
  9
$LUNITS
 70
     2
  9
$LUPREC
 70
     2
  9
$SKETCHINC
 40
1.0
  9
$FILLETRAD
 40
10.0
  9
$AUNITS
 70
     0
  9
$AUPREC
 70
     2
  9
$MENU
  1
.
  9
$ELEVATION
 40
0.0
  9
$PELEVATION
 40
0.0
  9
$THICKNESS
 40
0.0
  9
$LIMCHECK
 70
     0
  9
$CHAMFERA
 40
0.0
  9
$CHAMFERB
 40
0.0
  9
$CHAMFERC
 40
0.0
  9
$CHAMFERD
 40
0.0
  9
$SKPOLY
 70
     0
  9
$TDCREATE
 40
2460682.519635903
  9
$TDUCREATE
 40
2460682.394635903
  9
$TDUPDATE
 40
2460682.519636134
  9
$TDUUPDATE
 40
2460682.394636134
  9
$TDINDWG
 40
0.0000000116
  9
$TDUSRTIMER
 40
0.0000000116
  9
$USRTIMER
 70
     1
  9
$ANGBASE
 50
0.0
  9
$ANGDIR
 70
     0
  9
$PDMODE
 70
     0
  9
$PDSIZE
 40
-1.0
  9
$PLINEWID
 40
0.0
  9
$SPLFRAME
 70
     0
  9
$SPLINETYPE
 70
     6
  9
$SPLINESEGS
 70
     8
  9
$HANDSEED
  5
BF
  9
$SURFTAB1
 70
     6
  9
$SURFTAB2
 70
     6
  9
$SURFTYPE
 70
     6
  9
$SURFU
 70
     6
  9
$SURFV
 70
     6
  9
$UCSBASE
  2

  9
$UCSNAME
  2

  9
$UCSORG
 10
0.0
 20
0.0
 30
0.0
  9
$UCSXDIR
 10
1.0
 20
0.0
 30
0.0
  9
$UCSYDIR
 10
0.0
 20
1.0
 30
0.0
  9
$UCSORTHOREF
  2

  9
$UCSORTHOVIEW
 70
     0
  9
$UCSORGTOP
 10
0.0
 20
0.0
 30
0.0
  9
$UCSORGBOTTOM
 10
0.0
 20
0.0
 30
0.0
  9
$UCSORGLEFT
 10
0.0
 20
0.0
 30
0.0
  9
$UCSORGRIGHT
 10
0.0
 20
0.0
 30
0.0
  9
$UCSORGFRONT
 10
0.0
 20
0.0
 30
0.0
  9
$UCSORGBACK
 10
0.0
 20
0.0
 30
0.0
  9
$PUCSBASE
  2

  9
$PUCSNAME
  2

  9
$PUCSORG
 10
0.0
 20
0.0
 30
0.0
  9
$PUCSXDIR
 10
1.0
 20
0.0
 30
0.0
  9
$PUCSYDIR
 10
0.0
 20
1.0
 30
0.0
  9
$PUCSORTHOREF
  2

  9
$PUCSORTHOVIEW
 70
     0
  9
$PUCSORGTOP
 10
0.0
 20
0.0
 30
0.0
  9
$PUCSORGBOTTOM
 10
0.0
 20
0.0
 30
0.0
  9
$PUCSORGLEFT
 10
0.0
 20
0.0
 30
0.0
  9
$PUCSORGRIGHT
 10
0.0
 20
0.0
 30
0.0
  9
$PUCSORGFRONT
 10
0.0
 20
0.0
 30
0.0
  9
$PUCSORGBACK
 10
0.0
 20
0.0
 30
0.0
  9
$USERI1
 70
     0
  9
$USERI2
 70
     0
  9
$USERI3
 70
     0
  9
$USERI4
 70
     0
  9
$USERI5
 70
     0
  9
$USERR1
 40
0.0
  9
$USERR2
 40
0.0
  9
$USERR3
 40
0.0
  9
$USERR4
 40
0.0
  9
$USERR5
 40
0.0
  9
$WORLDVIEW
 70
     1
  9
$SHADEDGE
 70
     3
  9
$SHADEDIF
 70
    70
  9
$TILEMODE
 70
     1
  9
$MAXACTVP
 70
    64
  9
$PINSBASE
 10
0.0
 20
0.0
 30
0.0
  9
$PLIMCHECK
 70
     0
  9
$PEXTMIN
 10
1.0000000000E+20
 20
1.0000000000E+20
 30
1.0000000000E+20
  9
$PEXTMAX
 10
-1.0000000000E+20
 20
-1.0000000000E+20
 30
-1.0000000000E+20
  9
$PLIMMIN
 10
0.0
 20
0.0
  9
$PLIMMAX
 10
420.0
 20
297.0
  9
$UNITMODE
 70
     0
  9
$VISRETAIN
 70
     1
  9
$PLINEGEN
 70
     0
  9
$PSLTSCALE
 70
     1
  9
$TREEDEPTH
 70
  3020
  9
$CMLSTYLE
  2
Standard
  9
$CMLJUST
 70
     0
  9
$CMLSCALE
 40
20.0
  9
$PROXYGRAPHICS
 70
     1
  9
$MEASUREMENT
 70
     1
  9
$CELWEIGHT
370
    -1
  9
$ENDCAPS
280
     0
  9
$JOINSTYLE
280
     0
  9
$LWDISPLAY
290
     1
  9
$INSUNITS
 70
     4
  9
$HYPERLINKBASE
  1

  9
$STYLESHEET
  1

  9
$XEDIT
290
     1
  9
$CEPSNTYPE
380
     0
  9
$PSTYLEMODE
290
     1
  9
$FINGERPRINTGUID
  2
{2ae8d060-8a99-4c5c-a1f0-598d3a71e39a}
  9
$VERSIONGUID
  2
{FAEB1C32-E019-11D5-929B-00C0DF256EC4}
  9
$EXTNAMES
290
     1
  9
$PSVPSCALE
 40
0.0
  9
$OLESTARTUP
290
     0
  0
ENDSEC
  0
SECTION
  2
CLASSES
  0
CLASS
  1
ACDBDICTIONARYWDFLT
  2
AcDbDictionaryWithDefault
  3
ObjectDBX Classes
 90
        0
280
     0
281
     0
  0
CLASS
  1
VISUALSTYLE
  2
AcDbVisualStyle
  3
ObjectDBX Classes
 90
     4095
280
     0
281
     0
  0
CLASS
  1
MATERIAL
  2
AcDbMaterial
  3
ObjectDBX Classes
 90
     1153
280
     0
281
     0
  0
CLASS
  1
SCALE
  2
AcDbScale
  3
ObjectDBX Classes
 90
     1153
280
     0
281
     0
  0
CLASS
  1
TABLESTYLE
  2
AcDbTableStyle
  3
ObjectDBX Classes
 90
     4095
280
     0
281
     0
  0
CLASS
  1
MLEADERSTYLE
  2
AcDbMLeaderStyle
  3
ACDB_MLEADERSTYLE_CLASS
 90
     4095
280
     0
281
     0
  0
CLASS
  1
SUN
  2
AcDbSun
  3
SCENEOE
 90
     1153
280
     0
281
     0
  0
CLASS
  1
ACDBPLACEHOLDER
  2
AcDbPlaceHolder
  3
ObjectDBX Classes
 90
        0
280
     0
281
     0
  0
CLASS
  1
LAYOUT
  2
AcDbLayout
  3
ObjectDBX Classes
 90
        0
280
     0
281
     0
  0
ENDSEC
  0
SECTION
  2
TABLES
  0
TABLE
  2
VPORT
  5
8
330
0
100
AcDbSymbolTable
 70
     1
  0
VPORT
  5
29
330
8
100
AcDbSymbolTableRecord
100
AcDbViewportTableRecord
  2
*Active
 70
     0
 10
0.0
 20
0.0
 11
1.0
 21
1.0
 12
139.7
 22
107.95
 13
0.0
 23
0.0
 14
10.0
 24
10.0
 15
10.0
 25
10.0
 16
0.0
 26
0.0
 36
1.0
 17
0.0
 27
0.0
 37
0.0
 40
215.9
 41
1.2941176471
 42
50.0
 43
0.0
 44
0.0
 50
0.0
 51
0.0
 71
     0
 72
  2000
 73
     1
 74
     3
 75
     0
 76
     0
 77
     0
 78
     0
281
     0
 65
     1
110
0.0
120
0.0
130
0.0
111
1.0
121
0.0
131
0.0
112
0.0
122
1.0
132
0.0
 79
     0
146
0.0
  0
ENDTAB
  0
TABLE
  2
LTYPE
  5
5
330
0
100
AcDbSymbolTable
 70
     6
  0
LTYPE
  5
14
330
5
100
AcDbSymbolTableRecord
100
AcDbLinetypeTableRecord
  2
ByBlock
 70
     0
  3

 72
    65
 73
     0
 40
0.0
  0
LTYPE
  5
15
330
5
100
AcDbSymbolTableRecord
100
AcDbLinetypeTableRecord
  2
ByLayer
 70
     0
  3

 72
    65
 73
     0
 40
0.0
  0
LTYPE
  5
16
330
5
100
AcDbSymbolTableRecord
100
AcDbLinetypeTableRecord
  2
Continuous
 70
     0
  3
Solid line
 72
    65
 73
     0
 40
0.0
  0
LTYPE
  5
6E
330
5
100
AcDbSymbolTableRecord
100
AcDbLinetypeTableRecord
  2
HIDDEN
 70
     0
  3
Hidden __ __ __ __ __ __ __ __ __ __ __ __ __ __
 72
    65
 73
     2
 40
1.905
 49
1.27
 74
     0
 49
-0.635
 74
     0
  0
LTYPE
  5
6F
330
5
100
AcDbSymbolTableRecord
100
AcDbLinetypeTableRecord
  2
PHANTOM
 70
     0
  3
Phantom ______  __  __  ______  __  __  ______
 72
    65
 73
     6
 40
12.7
 49
6.35
 74
     0
 49
-1.27
 74
     0
 49
1.27
 74
     0
 49
-1.27
 74
     0
 49
1.27
 74
     0
 49
-1.27
 74
     0
  0
LTYPE
  5
70
330
5
100
AcDbSymbolTableRecord
100
AcDbLinetypeTableRecord
  2
CENTER
 70
     0
  3
Center ____ _ ____ _ ____ _ ____ _ ____ _ ____
 72
    65
 73
     4
 40
10.16
 49
6.35
 74
     0
 49
-1.27
 74
     0
 49
1.27
 74
     0
 49
-1.27
 74
     0
  0
LTYPE
  5
71
330
5
100
AcDbSymbolTableRecord
100
AcDbLinetypeTableRecord
  2
CENTERX2
 70
     0
  3
Center (2x) ________  __  ________  __  _____
 72
    65
 73
     4
 40
20.32
 49
12.7
 74
     0
 49
-2.54
 74
     0
 49
2.54
 74
     0
 49
-2.54
 74
     0
  0
LTYPE
  5
72
330
5
100
AcDbSymbolTableRecord
100
AcDbLinetypeTableRecord
  2
DOT2
 70
     0
  3
Dot (.5x) ........................................
 72
    65
 73
     2
 40
0.635
 49
0.0
 74
     0
 49
-0.635
 74
     0
  0
ENDTAB
  0
TABLE
  2
LAYER
  5
2
330
0
100
AcDbSymbolTable
 70
    17
  0
LAYER
  5
10
330
2
100
AcDbSymbolTableRecord
100
AcDbLayerTableRecord
  2
0
 70
     0
 62
     7
  6
Continuous
370
    -3
390
F
  0
LAYER
  5
73
330
2
100
AcDbSymbolTableRecord
100
AcDbLayerTableRecord
  2
FORMAT
 70
     0
 62
     7
  6
Continuous
370
    -3
390
F
  0
LAYER
  5
74
330
2
100
AcDbSymbolTableRecord
100
AcDbLayerTableRecord
  2
YARDIMCI_GEOMETRI
 70
     0
 62
    -6
  6
Continuous
290
     0
370
    -3
390
F
  0
LAYER
  5
75
330
2
100
AcDbSymbolTableRecord
100
AcDbLayerTableRecord
  2
SAYFA_CERCEVESI
 70
     0
 62
     7
  6
Continuous
370
    25
390
F
  0
LAYER
  5
76
330
2
100
AcDbSymbolTableRecord
100
AcDbLayerTableRecord
  2
ANTET
 70
     0
 62
     7
  6
Continuous
370
    -3
390
F
  0
LAYER
  5
77
330
2
100
AcDbSymbolTableRecord
100
AcDbLayerTableRecord
  2
OLCU
 70
     0
 62
   150
  6
Continuous
370
    -3
390
F
  0
LAYER
  5
78
330
2
100
AcDbSymbolTableRecord
100
AcDbLayerTableRecord
  2
METIN
 70
     0
 62
    96
  6
Continuous
370
    -3
390
F
  0
LAYER
  5
79
330
2
100
AcDbSymbolTableRecord
100
AcDbLayerTableRecord
  2
BALON
 70
     0
 62
     5
  6
Continuous
370
    -3
390
F
  0
LAYER
  5
7A
330
2
100
AcDbSymbolTableRecord
100
AcDbLayerTableRecord
  2
VURGU
 70
     0
 62
     7
  6
Continuous
370
    -3
390
F
  0
LAYER
  5
7B
330
2
100
AcDbSymbolTableRecord
100
AcDbLayerTableRecord
  2
SILIK
 70
     0
 62
     7
  6
Continuous
370
    -3
390
F
  0
LAYER
  5
7C
330
2
100
AcDbSymbolTableRecord
100
AcDbLayerTableRecord
  2
MODEL
 70
     0
 62
     7
  6
Continuous
370
    -3
390
F
  0
LAYER
  5
7D
330
2
100
AcDbSymbolTableRecord
100
AcDbLayerTableRecord
  2
DETAYLANDıRMA
 70
     0
 62
   190
  6
Continuous
370
    -3
390
F
  0
LAYER
  5
7E
330
2
100
AcDbSymbolTableRecord
100
AcDbLayerTableRecord
  2
TOLERANS
 70
     0
 62
   230
  6
Continuous
370
    -3
390
F
  0
LAYER
  5
7F
330
2
100
AcDbSymbolTableRecord
100
AcDbLayerTableRecord
  2
MERKEZ_CIZGILERI
 70
     0
 62
    30
  6
Continuous
370
    -3
390
F
  0
LAYER
  5
80
330
2
100
AcDbSymbolTableRecord
100
AcDbLayerTableRecord
  2
KESIT-DETAY_CIZGILERI
 70
     0
 62
     7
  6
Continuous
370
    -3
390
F
  0
LAYER
  5
81
330
2
100
AcDbSymbolTableRecord
100
AcDbLayerTableRecord
  2
\U+041E\U+0421\U+0415\U+0412\U+042B\U+0415
 70
     0
 62
     7
  6
Continuous
370
    -3
390
F
  0
LAYER
  5
82
330
2
100
AcDbSymbolTableRecord
100
AcDbLayerTableRecord
  2
\U+0412\U+041E\U+0414\U+042F\U+041D\U+042B\U+0415_\U+0417\U+041D\U+0410\U+041A\U+0418
 70
     0
 62
    11
  6
Continuous
370
    -3
390
F
  0
ENDTAB
  0
TABLE
  2
STYLE
  5
3
330
0
100
AcDbSymbolTable
 70
     1
  0
STYLE
  5
11
330
3
100
AcDbSymbolTableRecord
100
AcDbTextStyleTableRecord
  2
Standard
 70
     0
 40
0.0
 41
1.0
 50
0.0
 71
     0
 42
3.5
  3
txt
  4

  0
ENDTAB
  0
TABLE
  2
VIEW
  5
6
330
0
100
AcDbSymbolTable
 70
     0
  0
ENDTAB
  0
TABLE
  2
UCS
  5
7
330
0
100
AcDbSymbolTable
 70
     0
  0
ENDTAB
  0
TABLE
  2
APPID
  5
9
330
0
100
AcDbSymbolTable
 70
     1
  0
APPID
  5
12
330
9
100
AcDbSymbolTableRecord
100
AcDbRegAppTableRecord
  2
ACAD
 70
     0
  0
ENDTAB
  0
TABLE
  2
DIMSTYLE
  5
A
330
0
100
AcDbSymbolTable
 70
     1
100
AcDbDimStyleTable
  0
DIMSTYLE
105
27
330
A
100
AcDbSymbolTableRecord
100
AcDbDimStyleTableRecord
  2
ISO-25
 70
     0
 41
2.5
 42
0.625
 43
3.75
 44
1.25
 73
     0
 74
     0
 77
     1
 78
     8
140
2.5
141
2.5
143
0.0393700787
147
0.625
171
     3
172
     1
178
     0
271
     2
272
     2
274
     3
278
    44
283
     0
284
     8
340
11
  0
ENDTAB
  0
TABLE
  2
BLOCK_RECORD
  5
1
330
0
100
AcDbSymbolTable
 70
     2
  0
BLOCK_RECORD
  5
1F
330
1
100
AcDbSymbolTableRecord
100
AcDbBlockTableRecord
  2
*Model_Space
340
22
  0
BLOCK_RECORD
  5
1B
330
1
100
AcDbSymbolTableRecord
100
AcDbBlockTableRecord
  2
*Paper_Space
340
1E
  0
BLOCK_RECORD
  5
23
330
1
100
AcDbSymbolTableRecord
100
AcDbBlockTableRecord
  2
*Paper_Space0
340
26
  0
BLOCK_RECORD
  5
A2
330
1
100
AcDbSymbolTableRecord
100
AcDbBlockTableRecord
  2
SW_CENTERMARKSYMBOL_0
340
0
102
{BLKREFS
331
AD
102
}
  0
ENDTAB
  0
ENDSEC
  0
SECTION
  2
BLOCKS
  0
BLOCK
  5
20
330
1F
100
AcDbEntity
  8
0
100
AcDbBlockBegin
  2
*Model_Space
 70
     0
 10
0.0
 20
0.0
 30
0.0
  3
*Model_Space
  1

  0
ENDBLK
  5
21
330
1F
100
AcDbEntity
  8
0
100
AcDbBlockEnd
  0
BLOCK
  5
1C
330
1B
100
AcDbEntity
 67
     1
  8
0
100
AcDbBlockBegin
  2
*Paper_Space
 70
     0
 10
0.0
 20
0.0
 30
0.0
  3
*Paper_Space
  1

  0
ENDBLK
  5
1D
330
1B
100
AcDbEntity
 67
     1
  8
0
100
AcDbBlockEnd
  0
BLOCK
  5
24
330
23
100
AcDbEntity
  8
0
100
AcDbBlockBegin
  2
*Paper_Space0
 70
     0
 10
0.0
 20
0.0
 30
0.0
  3
*Paper_Space0
  1

  0
ENDBLK
  5
25
330
23
100
AcDbEntity
  8
0
100
AcDbBlockEnd
  0
BLOCK
  5
A3
330
A2
100
AcDbEntity
  8
0
100
AcDbBlockBegin
  2
SW_CENTERMARKSYMBOL_0
 70
     0
 10
0.0
 20
0.0
 30
0.0
  3
SW_CENTERMARKSYMBOL_0
  1

  0
LINE
  5
A5
330
A2
100
AcDbEntity
  8
FORMAT
 62
     0
100
AcDbLine
 10
0.0
 20
0.0
 30
0.0
 11
0.0
 21
2.5
 31
0.0
  0
LINE
  5
A6
330
A2
100
AcDbEntity
  8
FORMAT
 62
     0
100
AcDbLine
 10
0.0
 20
0.0
 30
0.0
 11
-2.5
 21
0.0
 31
0.0
  0
LINE
  5
A7
330
A2
100
AcDbEntity
  8
FORMAT
 62
     0
100
AcDbLine
 10
0.0
 20
0.0
 30
0.0
 11
0.0
 21
-2.5
 31
0.0
  0
LINE
  5
A8
330
A2
100
AcDbEntity
  8
FORMAT
 62
     0
100
AcDbLine
 10
0.0
 20
0.0
 30
0.0
 11
2.5
 21
0.0
 31
0.0
  0
LINE
  5
A9
330
A2
100
AcDbEntity
  8
FORMAT
 62
     0
100
AcDbLine
 10
0.0
 20
5.0
 30
0.0
 11
0.0
 21
202.5
 31
0.0
  0
LINE
  5
AA
330
A2
100
AcDbEntity
  8
FORMAT
 62
     0
100
AcDbLine
 10
-5.0
 20
0.0
 30
0.0
 11
-202.5
 21
0.0
 31
0.0
  0
LINE
  5
AB
330
A2
100
AcDbEntity
  8
FORMAT
 62
     0
100
AcDbLine
 10
0.0
 20
-5.0
 30
0.0
 11
0.0
 21
-202.5
 31
0.0
  0
LINE
  5
AC
330
A2
100
AcDbEntity
  8
FORMAT
 62
     0
100
AcDbLine
 10
5.0
 20
0.0
 30
0.0
 11
202.5
 21
0.0
 31
0.0
  0
ENDBLK
  5
A4
330
A2
100
AcDbEntity
  8
0
100
AcDbBlockEnd
  0
ENDSEC
  0
SECTION
  2
ENTITIES
  0
LINE
  5
83
330
1F
100
AcDbEntity
  8
0
  6
Continuous
 62
     7
370
    25
100
AcDbLine
 10
95.0928637862
 20
476.5767365098
 30
0.0
 11
-71.5715339059
 21
187.9055318942
 31
0.0
  0
LINE
  5
84
330
1F
100
AcDbEntity
  8
0
  6
Continuous
 62
     7
370
    25
100
AcDbLine
 10
328.4284660941
 20
80.7258549217
 30
0.0
 11
441.5030253
 21
276.5767365098
 31
0.0
  0
LINE
  5
85
330
1F
100
AcDbEntity
  8
0
  6
Continuous
 62
     7
370
    25
100
AcDbLine
 10
-71.5715339059
 20
187.9055318942
 30
0.0
 11
-71.5715339059
 21
-145.4232634902
 31
0.0
  0
LINE
  5
86
330
1F
100
AcDbEntity
  8
0
  6
Continuous
 62
     7
370
    25
100
AcDbLine
 10
328.4284660941
 20
-145.4232634902
 30
0.0
 11
328.4284660941
 21
80.7258549217
 31
0.0
  0
LINE
  5
87
330
1F
100
AcDbEntity
  8
0
  6
Continuous
 62
     7
370
    25
100
AcDbLine
 10
268.2979445431
 20
376.5767365098
 30
0.0
 11
441.5030253
 21
276.5767365098
 31
0.0
  0
LINE
  5
88
330
1F
100
AcDbEntity
  8
0
  6
Continuous
 62
     7
370
    25
100
AcDbLine
 10
95.0928637862
 20
476.5767365098
 30
0.0
 11
268.2979445431
 21
376.5767365098
 31
0.0
  0
LINE
  5
89
330
1F
100
AcDbEntity
  8
0
  6
Continuous
 62
     7
370
    25
100
AcDbLine
 10
328.4284660941
 20
80.7258549217
 30
0.0
 11
-71.5715339059
 21
187.9055318942
 31
0.0
  0
LINE
  5
8A
330
1F
100
AcDbEntity
  8
0
  6
Continuous
 62
     7
370
    25
100
AcDbLine
 10
128.4284660941
 20
-145.4232634902
 30
0.0
 11
328.4284660941
 21
-145.4232634902
 31
0.0
  0
LINE
  5
8B
330
1F
100
AcDbEntity
  8
0
  6
Continuous
 62
     7
370
    25
100
AcDbLine
 10
-71.5715339059
 20
-145.4232634902
 30
0.0
 11
128.4284660941
 21
-145.4232634902
 31
0.0
  0
LINE
  5
8C
330
1F
100
AcDbEntity
  8
0
  6
Continuous
 62
     7
370
    25
100
AcDbLine
 10
-707.4668962078
 20
376.5767365098
 30
0.0
 11
-707.4668962078
 21
134.3156934079
 31
0.0
  0
LINE
  5
8D
330
1F
100
AcDbEntity
  8
0
  6
Continuous
 62
     7
370
    25
100
AcDbLine
 10
-307.4668962078
 20
134.3156934079
 30
0.0
 11
-307.4668962078
 21
376.5767365098
 31
0.0
  0
LINE
  5
8E
330
1F
100
AcDbEntity
  8
0
  6
Continuous
 62
     7
370
    25
100
AcDbLine
 10
-707.4668962078
 20
134.3156934079
 30
0.0
 11
-707.4668962078
 21
-145.4232634902
 31
0.0
  0
LINE
  5
8F
330
1F
100
AcDbEntity
  8
0
  6
Continuous
 62
     7
370
    25
100
AcDbLine
 10
-307.4668962078
 20
-145.4232634902
 30
0.0
 11
-307.4668962078
 21
134.3156934079
 31
0.0
  0
LWPOLYLINE
  5
90
330
1F
100
AcDbEntity
  8
0
  6
Continuous
 62
     7
370
    25
100
AcDbPolyline
 90
      151
 70
   128
 43
0.0
 10
-707.4668962078
 20
376.5767365098
 10
-707.2914622276
 20
372.3891711369
 10
-706.7654680577
 20
368.2089521766
 10
-705.8898364707
 20
364.0434131534
 10
-704.6661036219
 20
359.8998618382
 10
-703.0964163545
 20
355.7855674281
 10
-701.1835284335
 20
351.7077477934
 10
-698.9307957142
 20
347.6735568154
 10
-696.3421702553
 20
343.690071836
 10
-693.4221933854
 20
339.7642812414
 10
-690.1759877363
 20
335.9030722023
 10
-686.6092482557
 20
332.1132185913
 10
-682.7282322166
 20
328.4013690997
 10
-678.5397482399
 20
324.7740355725
 10
-674.0511443498
 20
321.2375815855
 10
-669.2702950828
 20
317.7982112806
 10
-664.205587673
 20
314.461958482
 10
-658.8659073381
 20
311.2346761108
 10
-653.2606216921
 20
308.122025917
 10
-647.3995643105
 20
305.1294685466
 10
-641.2930174796
 20
302.2622539621
 10
-634.9516941575
 20
299.5254122323
 10
-628.3867191803
 20
296.9237447074
 10
-621.6096097447
 20
294.4618155965
 10
-614.6322552036
 20
292.1439439596
 10
-607.4668962078
 20
289.9741961314
 10
-600.1261032318
 20
287.9563785867
 10
-592.6227545208
 20
286.0940312632
 10
-584.9700134982
 20
284.390421351
 10
-577.1813056721
 20
282.8485375606
 10
-569.2702950828
 20
281.4710848803
 10
-561.2508603308
 20
280.2604798301
 10
-553.1370702299
 20
279.2188462225
 10
-544.9431591249
 20
278.348011437
 10
-536.6835019203
 20
277.6495032135
 10
-528.3725888613
 20
277.124546973
 10
-520.0250001136
 20
276.774063667
 10
-511.6553801845
 20
276.5986681624
 10
-503.2784122311
 20
276.5986681624
 10
-494.9087923019
 20
276.774063667
 10
-486.5612035543
 20
277.124546973
 10
-478.2502904953
 20
277.6495032135
 10
-469.9906332906
 20
278.348011437
 10
-461.7967221857
 20
279.2188462225
 10
-453.6829320847
 20
280.2604798301
 10
-445.6634973328
 20
281.4710848803
 10
-437.7524867434
 20
282.8485375607
 10
-429.9637789174
 20
284.390421351
 10
-422.3110378948
 20
286.0940312632
 10
-414.8076891838
 20
287.9563785867
 10
-407.4668962078
 20
289.9741961314
 10
-400.301537212
 20
292.1439439596
 10
-393.3241826709
 20
294.4618155965
 10
-386.5470732353
 20
296.9237447074
 10
-379.982098258
 20
299.5254122323
 10
-373.640774936
 20
302.2622539621
 10
-367.5342281051
 20
305.1294685466
 10
-361.6731707235
 20
308.122025917
 10
-356.0678850774
 20
311.2346761108
 10
-350.7282047426
 20
314.461958482
 10
-345.6634973328
 20
317.7982112806
 10
-340.8826480658
 20
321.2375815855
 10
-336.3940441757
 20
324.7740355725
 10
-332.205560199
 20
328.4013690997
 10
-328.3245441599
 20
332.1132185913
 10
-324.7578046793
 20
335.9030722023
 10
-321.5115990301
 20
339.7642812414
 10
-318.5916221603
 20
343.690071836
 10
-316.0029967014
 20
347.6735568154
 10
-313.7502639821
 20
351.7077477934
 10
-311.837376061
 20
355.7855674281
 10
-310.2676887937
 20
359.8998618382
 10
-309.0439559449
 20
364.0434131534
 10
-308.1683243579
 20
368.2089521766
 10
-307.642330188
 20
372.3891711369
 10
-307.4668962078
 20
376.5767365098
 10
-307.642330188
 20
380.7643018828
 10
-308.1683243579
 20
384.9445208431
 10
-309.0439559449
 20
389.1100598663
 10
-310.2676887937
 20
393.2536111815
 10
-311.837376061
 20
397.3679055916
 10
-313.7502639821
 20
401.4457252263
 10
-316.0029967014
 20
405.4799162043
 10
-318.5916221603
 20
409.4634011837
 10
-321.5115990301
 20
413.3891917783
 10
-324.7578046793
 20
417.2504008174
 10
-328.3245441599
 20
421.0402544283
 10
-332.205560199
 20
424.75210392
 10
-336.3940441757
 20
428.3794374472
 10
-340.8826480658
 20
431.9158914342
 10
-345.6634973328
 20
435.3552617391
 10
-350.7282047426
 20
438.6915145377
 10
-356.0678850774
 20
441.9187969089
 10
-361.6731707235
 20
445.0314471027
 10
-367.5342281051
 20
448.0240044731
 10
-373.640774936
 20
450.8912190576
 10
-379.9820982581
 20
453.6280607874
 10
-386.5470732353
 20
456.2297283123
 10
-393.3241826709
 20
458.6916574232
 10
-400.301537212
 20
461.00952906
 10
-407.4668962078
 20
463.1792768883
 10
-414.8076891838
 20
465.197094433
 10
-422.3110378948
 20
467.0594417564
 10
-429.9637789174
 20
468.7630516687
 10
-437.7524867434
 20
470.304935459
 10
-445.6634973328
 20
471.6823881394
 10
-453.6829320847
 20
472.8929931896
 10
-461.7967221857
 20
473.9346267972
 10
-469.9906332906
 20
474.8054615827
 10
-478.2502904953
 20
475.5039698061
 10
-486.5612035543
 20
476.0289260467
 10
-494.9087923019
 20
476.3794093527
 10
-503.2784122311
 20
476.5548048573
 10
-511.6553801845
 20
476.5548048573
 10
-520.0250001137
 20
476.3794093527
 10
-528.3725888613
 20
476.0289260467
 10
-536.6835019203
 20
475.5039698061
 10
-544.9431591249
 20
474.8054615827
 10
-553.1370702299
 20
473.9346267972
 10
-561.2508603308
 20
472.8929931896
 10
-569.2702950828
 20
471.6823881394
 10
-577.1813056722
 20
470.304935459
 10
-584.9700134982
 20
468.7630516687
 10
-592.6227545208
 20
467.0594417564
 10
-600.1261032318
 20
465.197094433
 10
-607.4668962078
 20
463.1792768883
 10
-614.6322552036
 20
461.00952906
 10
-621.6096097447
 20
458.6916574232
 10
-628.3867191803
 20
456.2297283123
 10
-634.9516941575
 20
453.6280607874
 10
-641.2930174796
 20
450.8912190576
 10
-647.3995643105
 20
448.0240044731
 10
-653.2606216921
 20
445.0314471027
 10
-658.8659073381
 20
441.9187969088
 10
-664.205587673
 20
438.6915145377
 10
-669.2702950828
 20
435.3552617391
 10
-674.0511443498
 20
431.9158914342
 10
-678.5397482399
 20
428.3794374472
 10
-682.7282322166
 20
424.75210392
 10
-686.6092482557
 20
421.0402544283
 10
-690.1759877363
 20
417.2504008174
 10
-693.4221933854
 20
413.3891917783
 10
-696.3421702553
 20
409.4634011837
 10
-698.9307957142
 20
405.4799162043
 10
-701.1835284335
 20
401.4457252263
 10
-703.0964163545
 20
397.3679055916
 10
-704.6661036219
 20
393.2536111814
 10
-705.8898364707
 20
389.1100598663
 10
-706.7654680577
 20
384.9445208431
 10
-707.2914622276
 20
380.7643018828
 10
-707.4668962078
 20
376.5767365098
  0
ELLIPSE
  5
91
330
1F
100
AcDbEntity
  8
0
  6
Continuous
 62
     7
370
    25
100
AcDbEllipse
 10
-507.4668962078
 20
134.3156934079
 30
0.0
 11
200.0
 21
0.0
 31
0.0
210
0.0
220
0.0
230
1.0
 40
0.2679491924
 41
3.141592653589849
 42
6.283185307179586
  0
LWPOLYLINE
  5
92
330
1F
100
AcDbEntity
  8
0
  6
Continuous
 62
     7
370
    25
100
AcDbPolyline
 90
      136
 70
   128
 43
0.0
 10
-671.1668962078
 20
376.5767365098
 10
-670.9896273339
 20
380.3848333132
 10
-670.4582046372
 20
384.1846826269
 10
-669.5737790608
 20
387.9680548234
 10
-668.3382660736
 20
391.726755961
 10
-666.7543415217
 20
395.4526455301
 10
-664.8254358329
 20
399.1376540835
 10
-662.5557265874
 20
402.7738007131
 10
-659.95012947
 20
406.3532103353
 10
-657.0142876239
 20
409.8681307456
 10
-653.7545594287
 20
413.3109494092
 10
-650.1780047299
 20
416.6742099476
 10
-646.2923695486
 20
419.9506282873
 10
-642.1060693052
 20
423.1331084358
 10
-637.628170594
 20
426.2147578497
 10
-632.8683715464
 20
429.1889023627
 10
-627.8369808272
 20
432.0491006399
 10
-622.5448953084
 20
434.7891581289
 10
-617.0035764687
 20
437.4031404752
 10
-611.225025571
 20
439.8853863751
 10
-605.2217576695
 20
442.2305198368
 10
-599.0067745059
 20
444.4334618235
 10
-592.5935363498
 20
446.4894412532
 10
-585.9959328469
 20
448.3940053324
 10
-579.2282529372
 20
450.1430291994
 10
-572.3051539084
 20
451.732724858
 10
-565.2416296514
 20
453.1596493813
 10
-558.052978187
 20
454.4207123686
 10
-550.7547685333
 20
455.5131826382
 10
-543.3628069873
 20
456.4346941429
 10
-535.8931028919
 20
457.1832510939
 10
-528.3618339626
 20
457.7572322835
 10
-520.7853112509
 20
458.1553945963
 10
-513.179943818
 20
458.3768757014
 10
-505.5622031961
 20
458.4211959199
 10
-497.9485877151
 20
458.2882592643
 10
-490.3555867709
 20
457.9783536457
 10
-482.7996451125
 20
457.4921502507
 10
-475.2971272273
 20
456.8307020875
 10
-467.8642818981
 20
455.9954417055
 10
-460.517207013
 20
454.9881780929
 10
-453.2718147
 20
453.8110927582
 10
-446.1437968656
 20
452.4667350061
 10
-439.1485912091
 20
450.9580164163
 10
-432.3013477883
 20
449.2882045372
 10
-425.6168962078
 20
447.4609158096
 10
-419.1097135011
 20
445.4801077339
 10
-412.7938927771
 20
443.3500702993
 10
-406.683112697
 20
441.0754166925
 10
-400.7906078497
 20
438.6610733069
 10
-395.1291400887
 20
436.1122690726
 10
-389.7109708923
 20
433.4345241319
 10
-384.5478348087
 20
430.6336378842
 10
-379.6509140408
 20
427.7156764253
 10
-375.0308142286
 20
424.68695941
 10
-370.6975414795
 20
421.5540463649
 10
-366.6604806973
 20
418.3237224822
 10
-362.9283752568
 20
415.0029839239
 10
-359.5093080672
 20
411.5990226703
 10
-356.4106840668
 20
408.1192109436
 10
-353.6392141851
 20
404.571085241
 10
-351.2009008088
 20
400.9623300128
 10
-349.1010247817
 20
397.3007610192
 10
-347.3441339677
 20
393.5943084033
 10
-345.934033401
 20
389.850999516
 10
-344.8737770454
 20
386.078941531
 10
-344.1656611803
 20
382.2863038858
 10
-343.8112194267
 20
378.4813005891
 10
-343.8112194267
 20
374.6721724306
 10
-344.1656611803
 20
370.8671691339
 10
-344.8737770454
 20
367.0745314887
 10
-345.934033401
 20
363.3024735036
 10
-347.3441339677
 20
359.5591646164
 10
-349.1010247817
 20
355.8527120005
 10
-351.2009008088
 20
352.1911430068
 10
-353.6392141851
 20
348.5823877786
 10
-356.4106840668
 20
345.0342620761
 10
-359.5093080672
 20
341.5544503494
 10
-362.9283752568
 20
338.1504890958
 10
-366.6604806973
 20
334.8297505375
 10
-370.6975414795
 20
331.5994266547
 10
-375.0308142286
 20
328.4665136097
 10
-379.6509140408
 20
325.4377965944
 10
-384.5478348087
 20
322.5198351355
 10
-389.7109708924
 20
319.7189488878
 10
-395.1291400887
 20
317.0412039471
 10
-400.7906078497
 20
314.4923997127
 10
-406.683112697
 20
312.0780563271
 10
-412.7938927771
 20
309.8034027204
 10
-419.1097135011
 20
307.6733652858
 10
-425.6168962078
 20
305.6925572101
 10
-432.3013477883
 20
303.8652684824
 10
-439.1485912091
 20
302.1954566034
 10
-446.1437968656
 20
300.6867380135
 10
-453.2718147
 20
299.3423802615
 10
-460.517207013
 20
298.1652949268
 10
-467.8642818981
 20
297.1580313141
 10
-475.2971272273
 20
296.3227709322
 10
-482.7996451125
 20
295.661322769
 10
-490.3555867709
 20
295.1751193739
 10
-497.9485877151
 20
294.8652137553
 10
-505.5622031961
 20
294.7322770997
 10
-513.179943818
 20
294.7765973183
 10
-520.7853112509
 20
294.9980784234
 10
-528.3618339626
 20
295.3962407362
 10
-535.8931028919
 20
295.9702219258
 10
-543.3628069873
 20
296.7187788768
 10
-550.7547685333
 20
297.6402903814
 10
-558.052978187
 20
298.7327606511
 10
-565.2416296514
 20
299.9938236384
 10
-572.3051539084
 20
301.4207481617
 10
-579.2282529372
 20
303.0104438203
 10
-585.9959328469
 20
304.7594676873
 10
-592.5935363498
 20
306.6640317665
 10
-599.006774506
 20
308.7200111962
 10
-605.2217576695
 20
310.9229531828
 10
-611.225025571
 20
313.2680866446
 10
-617.0035764687
 20
315.7503325445
 10
-622.5448953084
 20
318.3643148908
 10
-627.8369808272
 20
321.1043723798
 10
-632.8683715464
 20
323.964570657
 10
-637.628170594
 20
326.9387151699
 10
-642.1060693052
 20
330.0203645839
 10
-646.2923695486
 20
333.2028447324
 10
-650.1780047299
 20
336.4792630721
 10
-653.7545594287
 20
339.8425236104
 10
-657.0142876239
 20
343.2853422741
 10
-659.95012947
 20
346.8002626844
 10
-662.5557265874
 20
350.3796723065
 10
-664.8254358329
 20
354.0158189362
 10
-666.7543415217
 20
357.7008274896
 10
-668.3382660736
 20
361.4267170586
 10
-669.5737790608
 20
365.1854181963
 10
-670.4582046372
 20
368.9687903928
 10
-670.9896273339
 20
372.7686397065
 10
-671.1668962078
 20
376.5767365098
  0
LINE
  5
93
330
1F
100
AcDbEntity
  8
0
  6
Continuous
 62
     7
370
    25
100
AcDbLine
 10
-707.4668962078
 20
-145.4232634902
 30
0.0
 11
-307.4668962078
 21
-145.4232634902
 31
0.0
  0
LINE
  5
94
330
1F
100
AcDbEntity
  8
0
  6
Continuous
 62
     7
370
    25
100
AcDbLine
 10
652.7151954891
 20
134.3156934079
 30
0.0
 11
652.7151954891
 21
-145.4232634902
 31
0.0
  0
LINE
  5
95
330
1F
100
AcDbEntity
  8
0
  6
Continuous
 62
     7
370
    25
100
AcDbLine
 10
1052.7151954891
 20
-145.4232634902
 30
0.0
 11
1052.7151954891
 21
134.3156934079
 31
0.0
  0
LINE
  5
96
330
1F
100
AcDbEntity
  8
0
  6
Continuous
 62
     7
370
    25
100
AcDbLine
 10
652.7151954891
 20
376.5767365098
 30
0.0
 11
652.7151954891
 21
134.3156934079
 31
0.0
  0
LINE
  5
97
330
1F
100
AcDbEntity
  8
0
  6
Continuous
 62
     7
370
    25
100
AcDbLine
 10
1052.7151954891
 20
134.3156934079
 30
0.0
 11
1052.7151954891
 21
376.5767365098
 31
0.0
  0
ELLIPSE
  5
98
330
1F
100
AcDbEntity
  8
0
  6
Continuous
 62
     7
370
    25
100
AcDbEllipse
 10
852.7151954891
 20
134.3156934079
 30
0.0
 11
200.0
 21
0.0
 31
0.0
210
0.0
220
0.0
230
1.0
 40
0.2679491924
 41
1.570796326794897
 42
3.141592653589849
  0
ELLIPSE
  5
99
330
1F
100
AcDbEntity
  8
0
  6
Continuous
 62
     7
370
    25
100
AcDbEllipse
 10
852.7151954891
 20
134.3156934079
 30
0.0
 11
200.0
 21
0.0
 31
0.0
210
0.0
220
0.0
230
1.0
 40
0.2679491924
 41
0.0
 42
1.570796326794889
  0
LINE
  5
9A
330
1F
100
AcDbEntity
  8
0
  6
Continuous
 62
     7
370
    25
100
AcDbLine
 10
652.7151954891
 20
-145.4232634902
 30
0.0
 11
1052.7151954891
 21
-145.4232634902
 31
0.0
  0
LWPOLYLINE
  5
9B
330
1F
100
AcDbEntity
  8
0
  6
Continuous
 62
     7
370
    25
100
AcDbPolyline
 90
       76
 70
   128
 43
0.0
 10
652.7151954891
 20
376.5767365098
 10
652.8906294693
 20
380.7643018828
 10
653.4166236392
 20
384.9445208431
 10
654.2922552262
 20
389.1100598663
 10
655.515988075
 20
393.2536111815
 10
657.0856753423
 20
397.3679055916
 10
658.9985632633
 20
401.4457252263
 10
661.2512959826
 20
405.4799162043
 10
663.8399214416
 20
409.4634011837
 10
666.7598983114
 20
413.3891917783
 10
670.0061039605
 20
417.2504008174
 10
673.5728434412
 20
421.0402544283
 10
677.4538594803
 20
424.75210392
 10
681.642343457
 20
428.3794374472
 10
686.130947347
 20
431.9158914342
 10
690.9117966141
 20
435.3552617391
 10
695.9765040239
 20
438.6915145377
 10
701.3161843587
 20
441.9187969089
 10
706.9214700048
 20
445.0314471027
 10
712.7825273864
 20
448.0240044731
 10
718.8890742173
 20
450.8912190576
 10
725.2303975393
 20
453.6280607874
 10
731.7953725166
 20
456.2297283123
 10
738.5724819522
 20
458.6916574232
 10
745.5498364933
 20
461.00952906
 10
752.7151954891
 20
463.1792768883
 10
760.0559884651
 20
465.197094433
 10
767.559337176
 20
467.0594417564
 10
775.2120781986
 20
468.7630516687
 10
783.0007860247
 20
470.304935459
 10
790.9117966141
 20
471.6823881394
 10
798.931231366
 20
472.8929931896
 10
807.0450214669
 20
473.9346267972
 10
815.2389325719
 20
474.8054615827
 10
823.4985897766
 20
475.5039698061
 10
831.8095028355
 20
476.0289260467
 10
840.1570915832
 20
476.3794093527
 10
848.5267115124
 20
476.5548048573
 10
856.9036794657
 20
476.5548048573
 10
865.2732993949
 20
476.3794093527
 10
873.6208881426
 20
476.0289260467
 10
881.9318012015
 20
475.5039698061
 10
890.1914584062
 20
474.8054615827
 10
898.3853695112
 20
473.9346267972
 10
906.4991596121
 20
472.8929931896
 10
914.518594364
 20
471.6823881394
 10
922.4296049534
 20
470.304935459
 10
930.2183127795
 20
468.7630516687
 10
937.8710538021
 20
467.0594417564
 10
945.374402513
 20
465.197094433
 10
952.7151954891
 20
463.1792768883
 10
959.8805544849
 20
461.00952906
 10
966.8579090259
 20
458.6916574232
 10
973.6350184615
 20
456.2297283123
 10
980.1999934388
 20
453.6280607874
 10
986.5413167608
 20
450.8912190576
 10
992.6478635917
 20
448.0240044731
 10
998.5089209733
 20
445.0314471027
 10
1004.1142066194
 20
441.9187969088
 10
1009.4538869542
 20
438.6915145377
 10
1014.518594364
 20
435.3552617391
 10
1019.2994436311
 20
431.9158914342
 10
1023.7880475212
 20
428.3794374472
 10
1027.9765314978
 20
424.75210392
 10
1031.8575475369
 20
421.0402544283
 10
1035.4242870176
 20
417.2504008174
 10
1038.6704926667
 20
413.3891917783
 10
1041.5904695366
 20
409.4634011837
 10
1044.1790949955
 20
405.4799162043
 10
1046.4318277148
 20
401.4457252263
 10
1048.3447156358
 20
397.3679055916
 10
1049.9144029032
 20
393.2536111814
 10
1051.138135752
 20
389.1100598663
 10
1052.013767339
 20
384.9445208431
 10
1052.5397615088
 20
380.7643018828
 10
1052.7151954891
 20
376.5767365098
  0
LINE
  5
9C
330
1F
100
AcDbEntity
  8
0
  6
Continuous
 62
     7
370
    25
100
AcDbLine
 10
268.2979445431
 20
1081.5718387531
 30
0.0
 11
128.4284660941
 21
1081.5718387531
 31
0.0
  0
LINE
  5
9D
330
1F
100
AcDbEntity
  8
0
  6
Continuous
 62
     7
370
    25
100
AcDbLine
 10
128.4284660941
 20
681.5718387531
 30
0.0
 11
268.2979445431
 21
681.5718387531
 31
0.0
  0
CIRCLE
  5
9E
330
1F
100
AcDbEntity
  8
0
  6
Continuous
 62
     7
370
    25
100
AcDbCircle
 10
128.4284660941
 20
881.5718387531
 30
0.0
 40
200.0
  0
CIRCLE
  5
9F
330
1F
100
AcDbEntity
  8
0
  6
Continuous
 62
     7
370
    25
100
AcDbCircle
 10
128.4284660941
 20
881.5718387531
 30
0.0
 40
163.7
  0
LWPOLYLINE
  5
A0
330
1F
100
AcDbEntity
  8
0
  6
Continuous
 62
     7
370
    25
100
AcDbPolyline
 90
       77
 70
   128
 43
0.0
 10
268.2979445431
 20
1081.5718387531
 10
275.551020529
 20
1081.3964047729
 10
282.791372155
 20
1080.870410603
 10
290.0062973841
 20
1079.994779016
 10
297.1831387858
 20
1078.7710461672
 10
304.3093057415
 20
1077.2013588998
 10
311.3722965329
 20
1075.2884709788
 10
318.3597202742
 20
1073.0357382595
 10
325.2593186497
 20
1070.4471128006
 10
332.0589874195
 20
1067.5271359307
 10
338.7467976538
 20
1064.2809302816
 10
345.3110166612
 20
1060.714190801
 10
351.7401285708
 20
1056.8331747619
 10
358.0228545358
 20
1052.6446907852
 10
364.14817252
 20
1048.1560868951
 10
370.1053366341
 20
1043.3752376281
 10
375.8838959882
 20
1038.3105302183
 10
381.4737130254
 20
1032.9708498834
 10
386.8649813074
 20
1027.3655642374
 10
392.0482427175
 20
1021.5045068558
 10
397.014404054
 20
1015.3979600249
 10
401.7547529823
 20
1009.0566367028
 10
406.2609733198
 20
1002.4916617256
 10
410.5251596246
 20
995.71455229
 10
414.539831065
 20
988.7371977489
 10
418.2979445431
 20
981.5718387531
 10
421.7929070509
 20
974.2310457771
 10
425.0185872365
 20
966.7276970661
 10
427.9693261608
 20
959.0749560435
 10
430.639947225
 20
951.2862482175
 10
433.0257652524
 20
943.3752376281
 10
435.1225947073
 20
935.3558028761
 10
436.9267570385
 20
927.2420127752
 10
438.435087132
 20
919.0481016702
 10
439.6449388645
 20
910.7884444656
 10
440.5541897449
 20
902.4775314066
 10
441.1612446381
 20
894.129942659
 10
441.4650385636
 20
885.7603227298
 10
441.4650385636
 20
877.3833547764
 10
441.1612446381
 20
869.0137348472
 10
440.5541897449
 20
860.6661460996
 10
439.6449388645
 20
852.3552330406
 10
438.435087132
 20
844.0955758359
 10
436.9267570385
 20
835.901664731
 10
435.1225947073
 20
827.78787463
 10
433.0257652524
 20
819.7684398781
 10
430.639947225
 20
811.8574292887
 10
427.9693261608
 20
804.0687214627
 10
425.0185872365
 20
796.4159804401
 10
421.7929070509
 20
788.9126317291
 10
418.2979445431
 20
781.5718387531
 10
414.539831065
 20
774.4064797573
 10
410.5251596246
 20
767.4291252162
 10
406.2609733198
 20
760.6520157806
 10
401.7547529823
 20
754.0870408033
 10
397.014404054
 20
747.7457174813
 10
392.0482427175
 20
741.6391706504
 10
386.8649813074
 20
735.7781132688
 10
381.4737130254
 20
730.1728276227
 10
375.8838959882
 20
724.8331472879
 10
370.1053366341
 20
719.7684398781
 10
364.14817252
 20
714.9875906111
 10
358.0228545358
 20
710.498986721
 10
351.7401285708
 20
706.3105027443
 10
345.3110166612
 20
702.4294867052
 10
338.7467976538
 20
698.8627472246
 10
332.0589874195
 20
695.6165415754
 10
325.2593186497
 20
692.6965647056
 10
318.3597202742
 20
690.1079392467
 10
311.3722965329
 20
687.8552065274
 10
304.3093057415
 20
685.9423186063
 10
297.1831387858
 20
684.372631339
 10
290.0062973841
 20
683.1488984902
 10
282.791372155
 20
682.2732669032
 10
275.551020529
 20
681.7472727333
 10
268.2979445431
 20
681.5718387531
 10
268.2979445431
 20
681.5718387531
  0
LWPOLYLINE
  5
A1
330
1F
100
AcDbEntity
  8
0
  6
Continuous
 62
     7
370
    25
100
AcDbPolyline
 90
       49
 70
   128
 43
0.0
 10
203.3842936864
 20
1027.1029828768
 10
198.8470832937
 20
1024.2829472752
 10
193.1721602625
 20
1020.3973120939
 10
187.6599429513
 20
1016.2110118505
 10
182.3223695952
 20
1011.7331131393
 10
177.1710001897
 20
1006.9733140917
 10
172.2169914539
 20
1001.9419233725
 10
167.4710726673
 20
996.6498378537
 10
162.9435224335
 20
991.108519014
 10
158.6441464179
 20
985.3299681163
 10
154.5822561116
 20
979.3267002148
 10
150.7666486647
 20
973.1117170512
 10
147.205587833
 20
966.6984788951
 10
143.9067860816
 20
960.1008753922
 10
140.8773878803
 20
953.3331954825
 10
138.1239542311
 20
946.4100964537
 10
135.6524484581
 20
939.3465721967
 10
133.4682232926
 20
932.1579207323
 10
131.5760092798
 20
924.8597110786
 10
129.9799045339
 20
917.4677495326
 10
128.6833658625
 20
909.9980454372
 10
127.6892012795
 20
902.4667765079
 10
126.9995639241
 20
894.8902537962
 10
126.6159473972
 20
887.2848863633
 10
126.5391825268
 20
879.6671457414
 10
126.7694355685
 20
872.0535302604
 10
127.3062078455
 20
864.4605293162
 10
128.1483368285
 20
856.9045876578
 10
129.2939986538
 20
849.4020697726
 10
130.7407120728
 20
841.9692244434
 10
132.4853438266
 20
834.6221495583
 10
134.5241154312
 20
827.3767572453
 10
136.8526113612
 20
820.2487394109
 10
139.4657886131
 20
813.2535337544
 10
142.3579876267
 20
806.4062903336
 10
145.5229445431
 20
799.7218387531
 10
148.9538047703
 20
793.2146560464
 10
152.6431378291
 20
786.8988353224
 10
156.5829534455
 20
780.7880552423
 10
160.7647188563
 20
774.895550395
 10
165.1793772888
 20
769.234082634
 10
169.8173675757
 20
763.8159134377
 10
174.6686448631
 20
758.652777354
 10
179.7227023644
 20
753.7558565861
 10
184.9685941166
 20
749.1357567739
 10
190.3949586863
 20
744.8024840248
 10
195.9900437762
 20
740.7654232426
 10
201.7417316778
 20
737.0333178021
 10
203.3842936864
 20
736.0406946294
  0
INSERT
  5
AD
330
1F
100
AcDbEntity
  8
FORMAT
 62
     7
100
AcDbBlockReference
  2
SW_CENTERMARKSYMBOL_0
 10
128.4284660941
 20
881.5718387531
 30
0.0
  0
LINE
  5
AE
330
1F
100
AcDbEntity
  8
0
  6
Continuous
 62
     7
370
    25
100
AcDbLine
 10
268.2979445431
 20
-430.825756101
 30
0.0
 11
128.4284660941
 21
-430.825756101
 31
0.0
  0
LINE
  5
AF
330
1F
100
AcDbEntity
  8
0
  6
Continuous
 62
     7
370
    25
100
AcDbLine
 10
128.4284660941
 20
-830.825756101
 30
0.0
 11
268.2979445431
 21
-830.825756101
 31
0.0
  0
LWPOLYLINE
  5
B0
330
1F
100
AcDbEntity
  8
0
  6
Continuous
 62
     7
370
    25
100
AcDbPolyline
 90
      151
 70
   128
 43
0.0
 10
268.2979445431
 20
-830.825756101
 10
275.551020529
 20
-830.6503221207
 10
282.791372155
 20
-830.1243279509
 10
290.0062973841
 20
-829.2486963639
 10
297.1831387858
 20
-828.0249635151
 10
304.3093057415
 20
-826.4552762477
 10
311.3722965329
 20
-824.5423883267
 10
318.3597202742
 20
-822.2896556074
 10
325.2593186497
 20
-819.7010301485
 10
332.0589874195
 20
-816.7810532786
 10
338.7467976538
 20
-813.5348476295
 10
345.3110166612
 20
-809.9681081489
 10
351.7401285708
 20
-806.0870921097
 10
358.0228545358
 20
-801.8986081331
 10
364.14817252
 20
-797.410004243
 10
370.1053366341
 20
-792.629154976
 10
375.8838959882
 20
-787.5644475661
 10
381.4737130254
 20
-782.2247672313
 10
386.8649813074
 20
-776.6194815853
 10
392.0482427175
 20
-770.7584242036
 10
397.014404054
 20
-764.6518773727
 10
401.7547529823
 20
-758.3105540507
 10
406.2609733198
 20
-751.7455790734
 10
410.5251596246
 20
-744.9684696379
 10
414.539831065
 20
-737.9911150968
 10
418.2979445431
 20
-730.825756101
 10
421.7929070509
 20
-723.4849631249
 10
425.0185872365
 20
-715.981614414
 10
427.9693261608
 20
-708.3288733914
 10
430.639947225
 20
-700.5401655653
 10
433.0257652524
 20
-692.629154976
 10
435.1225947073
 20
-684.609720224
 10
436.9267570385
 20
-676.4959301231
 10
438.435087132
 20
-668.3020190181
 10
439.6449388645
 20
-660.0423618135
 10
440.5541897449
 20
-651.7314487545
 10
441.1612446381
 20
-643.3838600068
 10
441.4650385636
 20
-635.0142400776
 10
441.4650385636
 20
-626.6372721243
 10
441.1612446381
 20
-618.2676521951
 10
440.5541897449
 20
-609.9200634474
 10
439.6449388645
 20
-601.6091503885
 10
438.435087132
 20
-593.3494931838
 10
436.9267570385
 20
-585.1555820788
 10
435.1225947073
 20
-577.0417919779
 10
433.0257652524
 20
-569.022357226
 10
430.639947225
 20
-561.1113466366
 10
427.9693261608
 20
-553.3226388106
 10
425.0185872365
 20
-545.669897788
 10
421.7929070509
 20
-538.166549077
 10
418.2979445431
 20
-530.825756101
 10
414.539831065
 20
-523.6603971052
 10
410.5251596246
 20
-516.6830425641
 10
406.2609733198
 20
-509.9059331285
 10
401.7547529823
 20
-503.3409581512
 10
397.014404054
 20
-496.9996348292
 10
392.0482427175
 20
-490.8930879983
 10
386.8649813074
 20
-485.0320306167
 10
381.4737130254
 20
-479.4267449706
 10
375.8838959882
 20
-474.0870646358
 10
370.1053366341
 20
-469.022357226
 10
364.14817252
 20
-464.241507959
 10
358.0228545358
 20
-459.7529040689
 10
351.7401285708
 20
-455.5644200922
 10
345.3110166612
 20
-451.6834040531
 10
338.7467976538
 20
-448.1166645725
 10
332.0589874195
 20
-444.8704589233
 10
325.2593186497
 20
-441.9504820535
 10
318.3597202742
 20
-439.3618565946
 10
311.3722965329
 20
-437.1091238752
 10
304.3093057415
 20
-435.1962359542
 10
297.1831387858
 20
-433.6265486869
 10
290.0062973841
 20
-432.4028158381
 10
282.791372155
 20
-431.5271842511
 10
275.551020529
 20
-431.0011900812
 10
268.2979445431
 20
-430.825756101
 10
261.0448685572
 20
-431.0011900812
 10
253.8045169312
 20
-431.5271842511
 10
246.5895917021
 20
-432.4028158381
 10
239.4127503004
 20
-433.6265486869
 10
232.2865833447
 20
-435.1962359542
 10
225.2235925533
 20
-437.1091238752
 10
218.236168812
 20
-439.3618565946
 10
211.3365704365
 20
-441.9504820535
 10
204.5369016668
 20
-444.8704589233
 10
197.8490914324
 20
-448.1166645725
 10
191.284872425
 20
-451.6834040531
 10
184.8557605154
 20
-455.5644200922
 10
178.5730345504
 20
-459.7529040689
 10
172.4477165662
 20
-464.241507959
 10
166.4905524521
 20
-469.022357226
 10
160.711993098
 20
-474.0870646358
 10
155.1221760608
 20
-479.4267449706
 10
149.7309077788
 20
-485.0320306167
 10
144.5476463687
 20
-490.8930879983
 10
139.5814850322
 20
-496.9996348292
 10
134.8411361039
 20
-503.3409581512
 10
130.3349157665
 20
-509.9059331285
 10
126.0707294617
 20
-516.6830425641
 10
122.0560580212
 20
-523.6603971052
 10
118.2979445431
 20
-530.825756101
 10
114.8029820353
 20
-538.166549077
 10
111.5773018497
 20
-545.669897788
 10
108.6265629254
 20
-553.3226388106
 10
105.9559418612
 20
-561.1113466366
 10
103.5701238338
 20
-569.022357226
 10
101.4732943789
 20
-577.0417919779
 10
99.6691320478
 20
-585.1555820788
 10
98.1608019542
 20
-593.3494931838
 10
96.9509502217
 20
-601.6091503885
 10
96.0416993414
 20
-609.9200634474
 10
95.4346444482
 20
-618.2676521951
 10
95.1308505227
 20
-626.6372721243
 10
95.1308505227
 20
-635.0142400776
 10
95.4346444482
 20
-643.3838600068
 10
96.0416993414
 20
-651.7314487545
 10
96.9509502217
 20
-660.0423618135
 10
98.1608019542
 20
-668.3020190181
 10
99.6691320478
 20
-676.4959301231
 10
101.4732943789
 20
-684.609720224
 10
103.5701238338
 20
-692.629154976
 10
105.9559418612
 20
-700.5401655653
 10
108.6265629254
 20
-708.3288733914
 10
111.5773018497
 20
-715.981614414
 10
114.8029820353
 20
-723.4849631249
 10
118.2979445431
 20
-730.825756101
 10
122.0560580212
 20
-737.9911150968
 10
126.0707294617
 20
-744.9684696379
 10
130.3349157665
 20
-751.7455790735
 10
134.8411361039
 20
-758.3105540507
 10
139.5814850322
 20
-764.6518773727
 10
144.5476463687
 20
-770.7584242036
 10
149.7309077788
 20
-776.6194815853
 10
155.1221760608
 20
-782.2247672313
 10
160.711993098
 20
-787.5644475661
 10
166.4905524521
 20
-792.629154976
 10
172.4477165662
 20
-797.410004243
 10
178.5730345504
 20
-801.8986081331
 10
184.8557605154
 20
-806.0870921097
 10
191.284872425
 20
-809.9681081489
 10
197.8490914324
 20
-813.5348476295
 10
204.5369016668
 20
-816.7810532786
 10
211.3365704365
 20
-819.7010301485
 10
218.236168812
 20
-822.2896556074
 10
225.2235925533
 20
-824.5423883267
 10
232.2865833447
 20
-826.4552762477
 10
239.4127503004
 20
-828.0249635151
 10
246.5895917021
 20
-829.2486963639
 10
253.8045169312
 20
-830.1243279509
 10
261.0448685572
 20
-830.6503221207
 10
268.2979445431
 20
-830.825756101
  0
ARC
  5
B1
330
1F
100
AcDbEntity
  8
0
  6
Continuous
 62
     7
370
    25
100
AcDbCircle
 10
128.4284660941
 20
-630.825756101
 30
0.0
 40
200.0000000000001
100
AcDbArc
 50
90.0
 51
180.0
  0
ARC
  5
B2
330
1F
100
AcDbEntity
  8
0
  6
Continuous
 62
     7
370
    25
100
AcDbCircle
 10
128.4284660941
 20
-630.825756101
 30
0.0
 40
200.0
100
AcDbArc
 50
180.0
 51
270.0
  0
LWPOLYLINE
  5
B3
330
1F
100
AcDbEntity
  8
0
  6
Continuous
 62
     7
370
    25
100
AcDbPolyline
 90
      136
 70
   128
 43
0.0
 10
268.2979445431
 20
-794.525756101
 10
261.7021273995
 20
-794.3484872271
 10
255.1205953271
 20
-793.8170645303
 10
248.5676024588
 20
-792.932638954
 10
242.057341118
 20
-791.6971259668
 10
235.603911081
 20
-790.1132014149
 10
229.2212890402
 20
-788.1842957261
 10
222.9232983338
 20
-785.9145864806
 10
216.7235790072
 20
-783.3089893632
 10
210.635558272
 20
-780.3731475171
 10
204.6724214253
 20
-777.1134193219
 10
198.8470832937
 20
-773.5368646231
 10
193.1721602625
 20
-769.6512294418
 10
187.6599429513
 20
-765.4649291984
 10
182.3223695952
 20
-760.9870304872
 10
177.1710001897
 20
-756.2272314396
 10
172.2169914539
 20
-751.1958407204
 10
167.4710726673
 20
-745.9037552016
 10
162.9435224335
 20
-740.3624363619
 10
158.6441464179
 20
-734.5838854641
 10
154.5822561116
 20
-728.5806175627
 10
150.7666486647
 20
-722.3656343991
 10
147.205587833
 20
-715.952396243
 10
143.9067860816
 20
-709.35479274
 10
140.8773878803
 20
-702.5871128303
 10
138.1239542311
 20
-695.6640138016
 10
135.6524484581
 20
-688.6004895446
 10
133.4682232926
 20
-681.4118380802
 10
131.5760092798
 20
-674.1136284265
 10
129.9799045339
 20
-666.7216668805
 10
128.6833658625
 20
-659.2519627851
 10
127.6892012795
 20
-651.7206938558
 10
126.9995639241
 20
-644.1441711441
 10
126.6159473972
 20
-636.5388037112
 10
126.5391825268
 20
-628.9210630893
 10
126.7694355685
 20
-621.3074476083
 10
127.3062078455
 20
-613.7144466641
 10
128.1483368285
 20
-606.1585050057
 10
129.2939986538
 20
-598.6559871204
 10
130.7407120728
 20
-591.2231417913
 10
132.4853438266
 20
-583.8760669062
 10
134.5241154312
 20
-576.6306745932
 10
136.8526113612
 20
-569.5026567588
 10
139.4657886131
 20
-562.5074511023
 10
142.3579876267
 20
-555.6602076815
 10
145.5229445431
 20
-548.975756101
 10
148.9538047703
 20
-542.4685733943
 10
152.6431378291
 20
-536.1527526703
 10
156.5829534455
 20
-530.0419725902
 10
160.7647188563
 20
-524.1494677429
 10
165.1793772888
 20
-518.4879999819
 10
169.8173675757
 20
-513.0698307855
 10
174.6686448631
 20
-507.9066947019
 10
179.7227023644
 20
-503.009773934
 10
184.9685941166
 20
-498.3896741218
 10
190.3949586863
 20
-494.0564013727
 10
195.9900437762
 20
-490.0193405905
 10
201.7417316778
 20
-486.28723515
 10
207.637565516
 20
-482.8681679604
 10
213.6647762274
 20
-479.76954396
 10
219.8103102159
 20
-476.9980740783
 10
226.0608576232
 20
-474.559760702
 10
232.4028811556
 20
-472.4598846749
 10
238.8226454022
 20
-470.7029938608
 10
245.3062465834
 20
-469.2928932941
 10
251.8396426625
 20
-468.2326369386
 10
258.4086837587
 20
-467.5245210734
 10
264.9991427916
 20
-467.1700793199
 10
271.5967462946
 20
-467.1700793199
 10
278.1872053275
 20
-467.5245210734
 10
284.7562464237
 20
-468.2326369386
 10
291.2896425029
 20
-469.2928932941
 10
297.773243684
 20
-470.7029938608
 10
304.1930079307
 20
-472.4598846749
 10
310.535031463
 20
-474.559760702
 10
316.7855788704
 20
-476.9980740783
 10
322.9311128588
 20
-479.76954396
 10
328.9583235703
 20
-482.8681679604
 10
334.8541574084
 20
-486.28723515
 10
340.60584531
 20
-490.0193405905
 10
346.2009303999
 20
-494.0564013727
 10
351.6272949696
 20
-498.3896741218
 10
356.8731867218
 20
-503.009773934
 10
361.9272442232
 20
-507.9066947019
 10
366.7785215105
 20
-513.0698307855
 10
371.4165117975
 20
-518.4879999819
 10
375.8311702299
 20
-524.1494677429
 10
380.0129356407
 20
-530.0419725902
 10
383.9527512571
 20
-536.1527526703
 10
387.6420843159
 20
-542.4685733943
 10
391.0729445431
 20
-548.975756101
 10
394.2379014595
 20
-555.6602076815
 10
397.1301004732
 20
-562.5074511023
 10
399.743277725
 20
-569.5026567588
 10
402.0717736551
 20
-576.6306745932
 10
404.1105452596
 20
-583.8760669062
 10
405.8551770134
 20
-591.2231417913
 10
407.3018904324
 20
-598.6559871205
 10
408.4475522577
 20
-606.1585050057
 10
409.2896812408
 20
-613.7144466641
 10
409.8264535177
 20
-621.3074476083
 10
410.0567065594
 20
-628.9210630893
 10
409.979941689
 20
-636.5388037112
 10
409.5963251621
 20
-644.1441711441
 10
408.9066878067
 20
-651.7206938558
 10
407.9125232237
 20
-659.2519627851
 10
406.6159845523
 20
-666.7216668805
 10
405.0198798064
 20
-674.1136284265
 10
403.1276657936
 20
-681.4118380802
 10
400.9434406281
 20
-688.6004895446
 10
398.4719348552
 20
-695.6640138016
 10
395.718501206
 20
-702.5871128303
 10
392.6891030047
 20
-709.35479274
 10
389.3903012532
 20
-715.952396243
 10
385.8292404216
 20
-722.3656343991
 10
382.0136329746
 20
-728.5806175627
 10
377.9517426684
 20
-734.5838854641
 10
373.6523666528
 20
-740.3624363619
 10
369.1248164189
 20
-745.9037552016
 10
364.3788976324
 20
-751.1958407204
 10
359.4248888965
 20
-756.2272314396
 10
354.273519491
 20
-760.9870304872
 10
348.935946135
 20
-765.4649291984
 10
343.4237288237
 20
-769.6512294418
 10
337.7488057925
 20
-773.5368646231
 10
331.9234676609
 20
-777.1134193219
 10
325.9603308142
 20
-780.3731475171
 10
319.872310079
 20
-783.3089893632
 10
313.6725907524
 20
-785.9145864806
 10
307.374600046
 20
-788.1842957261
 10
300.9919780053
 20
-790.1132014149
 10
294.5385479683
 20
-791.6971259668
 10
288.0282866274
 20
-792.932638954
 10
281.4752937591
 20
-793.8170645303
 10
274.8937616867
 20
-794.3484872271
 10
268.2979445431
 20
-794.525756101
  0
ARC
  5
B4
330
1F
100
AcDbEntity
  8
0
  6
Continuous
 62
     7
370
    25
100
AcDbCircle
 10
128.4284660941
 20
-630.825756101
 30
0.0
 40
163.7000000000001
100
AcDbArc
 50
297.2507353084
 51
62.7492646916
  0
LINE
  5
B5
330
1F
100
AcDbEntity
  8
0
  6
Continuous
 62
     7
370
    25
100
AcDbLine
 10
608.741435114
 20
-599.5648720832
 30
0.0
 11
608.741435114
 21
-858.924930817
 31
0.0
  0
LINE
  5
B6
330
1F
100
AcDbEntity
  8
0
  6
Continuous
 62
     7
370
    25
100
AcDbLine
 10
1008.741435114
 20
-858.924930817
 30
0.0
 11
1008.741435114
 21
-661.4484395876
 31
0.0
  0
LINE
  5
B7
330
1F
100
AcDbEntity
  8
0
  6
Continuous
 62
     7
370
    25
100
AcDbLine
 10
721.1865022243
 20
-303.2519402448
 30
0.0
 11
611.0916765912
 21
-587.0099095476
 31
0.0
  0
LINE
  5
B8
330
1F
100
AcDbEntity
  8
0
  6
Continuous
 62
     7
370
    25
100
AcDbLine
 10
1008.741435114
 20
-667.9458990108
 30
0.0
 11
1094.1016813884
 21
-447.9387369783
 31
0.0
  0
LWPOLYLINE
  5
B9
330
1F
100
AcDbEntity
  8
0
  6
Continuous
 62
     7
370
    25
100
AcDbPolyline
 90
      151
 70
   128
 43
0.0
 10
667.3200788767
 20
-777.2841196347
 10
673.3662411775
 20
-773.9369701578
 10
679.6498975693
 20
-770.7389184429
 10
686.1600243834
 20
-767.6955749596
 10
692.8852006455
 20
-764.8122787663
 10
699.813628111
 20
-762.0940881445
 10
706.933151964
 20
-759.545771724
 10
714.2312821402
 20
-757.1718001179
 10
721.6952152396
 20
-754.9763380789
 10
729.3118569871
 20
-752.9632371936
 10
737.067845205
 20
-751.1360291249
 10
744.9495732544
 20
-749.4979194167
 10
752.9432139062
 20
-748.0517818701
 10
761.0347435983
 20
-746.8001535016
 10
769.2099670382
 20
-745.7452300929
 10
777.454542106
 20
-744.8888623379
 10
785.7540050155
 20
-744.2325525967
 10
794.0937956885
 20
-743.7774522597
 10
802.4592832984
 20
-743.5243597274
 10
810.8357919373
 20
-743.4737190102
 10
819.2086263626
 20
-743.6256189491
 10
827.5630977777
 20
-743.97979306
 10
835.8845496009
 20
-744.5356200011
 10
844.158383178
 20
-745.2921246632
 10
852.3700833934
 20
-746.2479798799
 10
860.5052441345
 20
-747.4015087565
 10
868.5495935653
 20
-748.7506876112
 10
876.4890191631
 20
-750.293149526
 10
884.3095924777
 20
-752.0261884986
 10
891.9975935661
 20
-753.9467641895
 10
899.539535062
 20
-756.0515072566
 10
906.9221858371
 20
-758.3367252652
 10
914.1325942134
 20
-760.7984091665
 10
921.1581106845
 20
-763.4322403303
 10
927.9864101072
 20
-766.2335981219
 10
934.605513324
 20
-769.1975680078
 10
941.0038081788
 20
-772.3189501776
 10
947.1700698881
 20
-775.5922686664
 10
953.0934807337
 20
-779.0117809612
 10
958.7636490401
 20
-782.5714880755
 10
964.1706274054
 20
-786.2651450734
 10
969.3049301523
 20
-790.0862720255
 10
974.157549969
 20
-794.0281653767
 10
978.7199737114
 20
-798.0839097065
 10
982.9841973381
 20
-802.2463898613
 10
986.9427399517
 20
-806.5083034364
 10
990.5886569235
 20
-810.8621735872
 10
993.915552076
 20
-815.300362146
 10
996.9175889049
 20
-819.815083022
 10
999.5895008173
 20
-824.3984158607
 10
1001.9266003719
 20
-829.0423199387
 10
1003.9247875018
 20
-833.7386482705
 10
1005.5805567079
 20
-838.4791619001
 10
1006.8910032083
 20
-843.255544356
 10
1007.8538280347
 20
-848.0594162402
 10
1008.467342065
 20
-852.8823499292
 10
1008.7304689871
 20
-857.7158843582
 10
1008.6427471872
 20
-862.5515398656
 10
1008.2043305589
 20
-867.3808330684
 10
1007.4159882341
 20
-872.1952917453
 10
1006.2791032331
 20
-876.9864696999
 10
1004.7956700384
 20
-881.7459615779
 10
1002.968291096
 20
-886.4654176133
 10
1000.8001722494
 20
-891.1365582765
 10
998.295117116
 20
-895.7511887996
 10
995.4575204135
 20
-900.3012135526
 10
992.2923602508
 20
-904.7786502458
 10
988.8051893945
 20
-909.175643934
 10
985.002125527
 20
-913.4844807961
 10
980.8898405148
 20
-917.6976016681
 10
976.4755487031
 20
-921.8076153043
 10
971.7669942598
 20
-925.8073113442
 10
966.7724375892
 20
-929.6896729619
 10
961.500640841
 20
-933.4478891758
 10
955.960852538
 20
-937.0753667978
 10
950.1627913514
 20
-940.5657419993
 10
944.1166290506
 20
-943.9128914762
 10
937.8329726588
 20
-947.1109431911
 10
931.3228458446
 20
-950.1542866745
 10
924.5976695826
 20
-953.0375828677
 10
917.669242117
 20
-955.7557734895
 10
910.5497182641
 20
-958.30408991
 10
903.2515880879
 20
-960.6780615161
 10
895.7876549885
 20
-962.8735235551
 10
888.171013241
 20
-964.8866244404
 10
880.4150250231
 20
-966.7138325091
 10
872.5332969737
 20
-968.3519422173
 10
864.5396563219
 20
-969.7980797639
 10
856.4481266298
 20
-971.0497081324
 10
848.2729031899
 20
-972.1046315412
 10
840.0283281221
 20
-972.9609992962
 10
831.7288652126
 20
-973.6173090373
 10
823.3890745396
 20
-974.0724093743
 10
815.0235869297
 20
-974.3255019066
 10
806.6470782908
 20
-974.3761426238
 10
798.2742438655
 20
-974.2242426849
 10
789.9197724503
 20
-973.870068574
 10
781.5983206272
 20
-973.3142416329
 10
773.3244870501
 20
-972.5577369709
 10
765.1127868347
 20
-971.6018817541
 10
756.9776260935
 20
-970.4483528776
 10
748.9332766628
 20
-969.0991740228
 10
740.993851065
 20
-967.556712108
 10
733.1732777503
 20
-965.8236731355
 10
725.485276662
 20
-963.9030974445
 10
717.9433351661
 20
-961.7983543774
 10
710.560684391
 20
-959.5131363688
 10
703.3502760147
 20
-957.0514524675
 10
696.3247595436
 20
-954.4176213037
 10
689.4964601209
 20
-951.6162635121
 10
682.8773569041
 20
-948.6522936262
 10
676.4790620493
 20
-945.5309114564
 10
670.31280034
 20
-942.2575929677
 10
664.3893894944
 20
-938.8380806729
 10
658.7192211879
 20
-935.2783735586
 10
653.3122428226
 20
-931.5847165606
 10
648.1779400758
 20
-927.7635896085
 10
643.3253202591
 20
-923.8216962573
 10
638.7628965167
 20
-919.7659519275
 10
634.49867289
 20
-915.6034717727
 10
630.5401302764
 20
-911.3415581977
 10
626.8942133046
 20
-906.9876880468
 10
623.567318152
 20
-902.549499488
 10
620.5652813232
 20
-898.034778612
 10
617.8933694108
 20
-893.4514457734
 10
615.5562698562
 20
-888.8075416953
 10
613.5580827263
 20
-884.1112133636
 10
611.9023135202
 20
-879.3706997339
 10
610.5918670198
 20
-874.594317278
 10
609.6290421934
 20
-869.7904453938
 10
609.0155281631
 20
-864.9675117049
 10
608.7524012409
 20
-860.1339772758
 10
608.8401230409
 20
-855.2983217684
 10
609.2785396691
 20
-850.4690285656
 10
610.066881994
 20
-845.6545698887
 10
611.203766995
 20
-840.8633919341
 10
612.6872001897
 20
-836.1039000561
 10
614.5145791321
 20
-831.3844440207
 10
616.6826979787
 20
-826.7133033575
 10
619.1877531121
 20
-822.0986728344
 10
622.0253498146
 20
-817.5486480814
 10
625.1905099772
 20
-813.0712113882
 10
628.6776808336
 20
-808.6742177
 10
632.480744701
 20
-804.3653808379
 10
636.5930297133
 20
-800.1522599659
 10
641.007321525
 20
-796.0422463297
 10
645.7158759683
 20
-792.0425502898
 10
650.7104326389
 20
-788.1601886721
 10
655.9822293871
 20
-784.4019724582
 10
661.5220176901
 20
-780.7744948363
 10
667.3200788767
 20
-777.2841196347
  0
LWPOLYLINE
  5
BA
330
1F
100
AcDbEntity
  8
0
  6
Continuous
 62
     7
370
    25
100
AcDbPolyline
 90
      136
 70
   128
 43
0.0
 10
692.9880550338
 20
-792.1019268643
 10
687.7279409104
 20
-795.2832498585
 10
682.7299150686
 20
-798.6024065621
 10
678.0048021193
 20
-802.0522084208
 10
673.562835605
 20
-805.625183932
 10
669.4136358361
 20
-809.3135948263
 10
665.5661890553
 20
-813.109452827
 10
662.0288279757
 20
-817.004536951
 10
658.8092137335
 20
-820.9904113134
 10
655.9143192964
 20
-825.058443398
 10
653.3504143611
 20
-829.1998227529
 10
651.1230517748
 20
-833.4055800729
 10
649.2370555087
 20
-837.6666066239
 10
647.6965102109
 20
-841.9736739715
 10
646.5047523594
 20
-846.3174539667
 10
645.6643630364
 20
-850.6885389494
 10
645.177162338
 20
-855.0774621228
 10
645.0442054324
 20
-859.4747180566
 10
645.2657802747
 20
-863.8707832737
 10
645.8414069831
 20
-868.2561368757
 10
646.7698388783
 20
-872.6212811633
 10
648.0490651837
 20
-876.9567622058
 10
649.6763153797
 20
-881.2531903169
 10
651.648065205
 20
-885.5012603898
 10
653.9600442884
 20
-889.6917720509
 10
656.6072453981
 20
-893.8156495849
 10
659.5839352859
 20
-897.8639615914
 10
662.8836671044
 20
-901.8279403281
 10
666.4992943692
 20
-905.6990006997
 10
670.4229864368
 20
-909.4687588514
 10
674.6462454639
 20
-913.1290503266
 10
679.1599248119
 20
-916.6719477489
 10
683.9542488563
 20
-920.0897779915
 10
689.018834159
 20
-923.3751387951
 10
694.3427119558
 20
-926.5209147998
 10
699.914351913
 20
-929.5202929553
 10
705.7216870992
 20
-932.3667772763
 10
711.7521401194
 20
-935.0542029118
 10
717.9926503553
 20
-937.5767494961
 10
724.4297022513
 20
-939.9289537551
 10
731.0493545864
 20
-942.1057213382
 10
737.8372706676
 20
-944.1023378515
 10
744.7787493803
 20
-945.9144790681
 10
751.8587570274
 20
-947.5382202939
 10
759.0619598886
 20
-948.9700448667
 10
766.3727574308
 20
-950.2068517736
 10
773.7753160942
 20
-951.245962366
 10
781.2536035853
 20
-952.0851261619
 10
788.7914235986
 20
-952.7225257192
 10
796.3724508944
 20
-953.1567805726
 10
803.9802666558
 20
-953.3869502227
 10
811.5983940478
 20
-953.4125361733
 10
819.210333903
 20
-953.2334830109
 10
826.7996004546
 20
-952.8501785248
 10
834.3497570411
 20
-952.2634528672
 10
841.8444517048
 20
-951.4745767551
 10
849.2674526058
 20
-950.4852587187
 10
856.6026831772
 20
-949.2976414004
 10
863.8342569428
 20
-947.9142969148
 10
870.9465119243
 20
-946.3382212782
 10
877.924044561
 20
-944.5728279194
 10
884.751743071
 20
-942.6219402873
 10
891.4148201798
 20
-940.4897835701
 10
897.898845146
 20
-938.1809755445
 10
904.1897750154
 20
-935.7005165745
 10
910.2739850347
 20
-933.0537787818
 10
916.1382981598
 20
-930.2464944113
 10
921.7700135944
 20
-927.2847434157
 10
927.1569342969
 20
-924.1749402882
 10
932.2873933965
 20
-920.9238201699
 10
937.1502794614
 20
-917.5384242629
 10
941.7350605631
 20
-914.026084581
 10
946.0318070867
 20
-910.3944080698
 10
950.031213236
 20
-906.651260132
 10
953.724617188
 20
-902.8047475924
 10
957.1040198519
 20
-898.8632011407
 10
960.1621021943
 20
-894.8351572889
 10
962.8922410897
 20
-890.7293398829
 10
965.2885236652
 20
-886.5546412089
 10
967.3457601063
 20
-882.3201027348
 10
969.0594948971
 20
-878.0348955278
 10
970.4260164695
 20
-873.7083003926
 10
971.4423652421
 20
-869.3496877709
 10
972.1063400298
 20
-864.9684974469
 10
972.4165028111
 20
-860.5742181034
 10
972.3721818425
 20
-856.1763667709
 10
971.9734731133
 20
-851.7844682161
 10
971.2212401377
 20
-847.4080343132
 10
970.117112085
 20
-843.0565434436
 10
968.6634802507
 20
-838.7394199675
 10
966.8634928776
 20
-834.4660138131
 10
964.7210483375
 20
-830.2455802265
 10
962.2407866882
 20
-826.087259727
 10
959.4280796242
 20
-822.000058311
 10
956.2890188427
 20
-817.9928279464
 10
952.8304028502
 20
-814.074247402
 10
949.059722239
 20
-810.2528034507
 10
944.9851434635
 20
-806.5367724891
 10
940.615491154
 20
-802.9342026128
 10
935.9602290045
 20
-799.4528961859
 10
931.0294392762
 20
-796.100392943
 10
925.8338009616
 20
-792.8839536595
 10
920.3845666563
 20
-789.8105444267
 10
914.6935381884
 20
-786.8868215647
 10
908.7730410584
 20
-784.1191172061
 10
902.6358977447
 20
-781.5134255822
 10
896.2953999331
 20
-779.0753900409
 10
889.7652797299
 20
-776.8102908243
 10
883.0596799214
 20
-774.7230336328
 10
876.1931233436
 20
-772.8181390008
 10
869.1804814291
 20
-771.0997325059
 10
862.0369419987
 20
-769.5715358339
 10
854.777976368
 20
-768.2368587184
 10
847.4193058402
 20
-767.098591773
 10
839.9768676572
 20
-766.1592002303
 10
832.4667804826
 20
-765.4207186033
 10
824.9053094931
 20
-764.8847462786
 10
817.308831151
 20
-764.5524440531
 10
809.6937977369
 20
-764.4245316194
 10
802.0767017173
 20
-764.5012860072
 10
794.4740400262
 20
-764.7825409837
 10
786.9022783359
 20
-765.2676874133
 10
779.3778153961
 20
-765.9556745767
 10
771.9169475179
 20
-766.845012447
 10
764.53583328
 20
-767.9337749165
 10
757.250458532
 20
-769.2196039679
 10
750.0766017735
 20
-770.699714782
 10
743.0297999806
 20
-772.3709017684
 10
736.125314957
 20
-774.229545508
 10
729.3781002797
 20
-776.2716205925
 10
722.8027689133
 20
-778.4927043419
 10
716.4135615613
 20
-780.8879863835
 10
710.224315824
 20
-783.4522790697
 10
704.2484362297
 20
-786.1800287136
 10
698.4988652028
 20
-789.0653276167
 10
692.9880550338
 20
-792.1019268643
  0
ELLIPSE
  5
BB
330
1F
100
AcDbEntity
  8
0
  6
Continuous
 62
     7
370
    25
100
AcDbEllipse
 10
808.741435114
 20
-630.5066558354
 30
0.0
 11
199.4115740178761
 21
-37.32909205824467
 31
0.0
210
0.0
220
0.0
230
1.0
 40
0.4106849769
 41
0.0767277489784231
 42
3.218320402568242
  0
LWPOLYLINE
  5
BC
330
1F
100
AcDbEntity
  8
0
  6
Continuous
 62
     7
370
    25
100
AcDbPolyline
 90
       61
 70
   128
 43
0.0
 10
766.2227355691
 20
-293.9545274293
 10
771.4754853402
 20
-294.4847232857
 10
776.9671211176
 20
-295.157214723
 10
782.6880087058
 20
-295.9708219626
 10
788.6281117242
 20
-296.924117661
 10
794.7770092135
 20
-298.0154294137
 10
801.1239139182
 20
-299.2428426889
 10
807.6576912107
 20
-300.6042041867
 10
814.3668786254
 20
-302.0971256164
 10
821.2397059679
 20
-303.7189878866
 10
828.2641159635
 20
-305.4669456997
 10
835.4277854103
 20
-307.3379325438
 10
842.7181467978
 20
-309.3286660721
 10
850.1224103548
 20
-311.4356538616
 10
857.627586487
 20
-313.6551995398
 10
865.2205085653
 20
-315.9834092694
 10
872.8878560243
 20
-318.4161985792
 10
880.616177731
 20
-320.9492995303
 10
888.3919155832
 20
-323.5782682028
 10
896.2014282944
 20
-326.2984924923
 10
904.0310153257
 20
-329.105200201
 10
911.8669409208
 20
-331.99346741
 10
919.6954582037
 20
-334.9582271171
 10
927.5028332948
 20
-337.9942781264
 10
935.2753694053
 20
-341.0962941726
 10
942.9994308657
 20
-344.2588332657
 10
950.6614670476
 20
-347.4763472373
 10
958.2480361359
 20
-350.7431914748
 10
965.7458287105
 20
-354.0536348231
 10
973.1416910955
 20
-357.4018696398
 10
980.4226484351
 20
-360.7820219832
 10
987.5759274561
 20
-364.1881619176
 10
994.5889788763
 20
-367.6143139161
 10
1001.4494994205
 20
-371.0544673439
 10
1008.1454534044
 20
-374.5025870029
 10
1014.6650938496
 20
-377.9526237195
 10
1020.9969830911
 20
-381.3985249571
 10
1027.1300128438
 20
-384.8342454338
 10
1033.0534236894
 20
-388.2537577286
 10
1038.7568239525
 20
-391.6510628549
 10
1044.230207931
 20
-395.0202007851
 10
1049.4639734495
 20
-398.3552609065
 10
1054.448938705
 20
-401.6503923903
 10
1059.1763583743
 20
-404.8998144561
 10
1063.6379389571
 20
-408.0978265136
 10
1067.8258533249
 20
-411.2388181629
 10
1071.7327544528
 20
-414.3172790374
 10
1075.3517883088
 20
-417.3278084705
 10
1078.6766058777
 20
-420.2651249707
 10
1081.7013742996
 20
-423.1240754868
 10
1084.420787103
 20
-425.899644448
 10
1086.8300735137
 20
-428.5869625632
 10
1088.9250068247
 20
-431.1813153633
 10
1090.7019118111
 20
-433.678151472
 10
1092.1576711777
 20
-436.0730905903
 10
1093.289731028
 20
-438.3619311811
 10
1094.0961053443
 20
-440.5406578403
 10
1094.575379472
 20
-442.605448341
 10
1094.7267126014
 20
-444.552680339
 10
1094.5498392429
 20
-446.3789377279
 10
1094.1016813884
 20
-447.9387369783
  0
LWPOLYLINE
  5
BD
330
1F
100
AcDbEntity
  8
0
  6
Continuous
 62
     7
370
    25
100
AcDbPolyline
 90
       17
 70
   128
 43
0.0
 10
721.1865022243
 20
-303.2519402448
 10
721.2431139204
 20
-303.1096605917
 10
722.0748941256
 20
-301.5347461982
 10
723.2322257604
 20
-300.0897592498
 10
724.7130784718
 20
-298.7772347445
 10
726.5148543409
 20
-297.5994752964
 10
728.6343924407
 20
-296.5585470957
 10
731.0679743811
 20
-295.6562762843
 10
733.8113308325
 20
-294.8942457516
 10
736.8596490153
 20
-294.2737923582
 10
740.2075811437
 20
-293.7960045902
 10
743.8492538072
 20
-293.4617206496
 10
747.7782782744
 20
-293.2715269842
 10
751.9877617012
 20
-293.2257572581
 10
756.4703192235
 20
-293.3244917672
 10
761.218086912
 20
-293.5675572974
 10
766.2227355691
 20
-293.9545274293
  0
ENDSEC
  0
SECTION
  2
OBJECTS
  0
DICTIONARY
  5
C
330
0
100
AcDbDictionary
281
     1
  3
ACAD_GROUP
350
D
  3
ACAD_LAYOUT
350
1A
  3
ACAD_MLINESTYLE
350
17
  3
ACAD_PLOTSETTINGS
350
19
  3
ACAD_PLOTSTYLENAME
350
E
  3
ACAD_SCALELIST
350
47
  3
DWGPROPS
350
BE
  0
DICTIONARY
  5
D
102
{ACAD_REACTORS
330
C
102
}
330
C
100
AcDbDictionary
281
     1
  0
DICTIONARY
  5
1A
102
{ACAD_REACTORS
330
C
102
}
330
C
100
AcDbDictionary
281
     1
  3
Layout1
350
1E
  3
Layout2
350
26
  3
Model
350
22
  0
DICTIONARY
  5
17
102
{ACAD_REACTORS
330
C
102
}
330
C
100
AcDbDictionary
281
     1
  3
Standard
350
18
  0
DICTIONARY
  5
19
102
{ACAD_REACTORS
330
C
102
}
330
C
100
AcDbDictionary
281
     1
  0
ACDBDICTIONARYWDFLT
  5
E
102
{ACAD_REACTORS
330
C
102
}
330
C
100
AcDbDictionary
281
     1
  3
Normal
350
F
100
AcDbDictionaryWithDefault
340
F
  0
DICTIONARY
  5
47
102
{ACAD_REACTORS
330
C
102
}
330
C
100
AcDbDictionary
281
     1
  3
A0
350
48
  3
A1
350
49
  3
A2
350
4A
  3
A3
350
4B
  3
A4
350
4C
  3
A5
350
4D
  3
A6
350
4E
  3
A7
350
4F
  3
A8
350
50
  3
A9
350
51
  3
B0
350
52
  3
B1
350
53
  3
B2
350
54
  3
B3
350
55
  3
B4
350
56
  3
B5
350
57
  3
B6
350
58
  3
B7
350
59
  3
B8
350
5A
  3
B9
350
5B
  3
C0
350
5C
  3
C1
350
5D
  3
C2
350
5E
  3
C3
350
5F
  3
C4
350
60
  3
C5
350
61
  3
C6
350
62
  3
C7
350
63
  3
C8
350
64
  3
C9
350
65
  3
D0
350
66
  3
D1
350
67
  3
D2
350
68
  0
XRECORD
  5
BE
102
{ACAD_REACTORS
330
C
102
}
330
C
100
AcDbXrecord
280
     1
  1
DWGPROPS COOKIE
  2

  3

  4

  6

  7

  8
b.kav
  9

300
=
301
=
302
=
303
=
304
=
305
=
306
=
307
=
308
=
309
=
 40
0.0
 41
2460682.394635903
 42
2460682.394636134
  1

 90
        0
  0
LAYOUT
  5
1E
102
{ACAD_REACTORS
330
1A
102
}
330
1A
100
AcDbPlotSettings
  1

  2
none_device
  4

  6

 40
0.0
 41
0.0
 42
0.0
 43
0.0
 44
0.0
 45
0.0
 46
0.0
 47
0.0
 48
0.0
 49
0.0
140
0.0
141
0.0
142
1.0
143
1.0
 70
   688
 72
     1
 73
     0
 74
     5
  7

 75
    16
147
1.0
148
0.0
149
0.0
100
AcDbLayout
  1
Layout1
 70
     1
 71
     1
 10
0.0
 20
0.0
 11
420.0
 21
297.0
 12
0.0
 22
0.0
 32
0.0
 14
1.0000000000E+20
 24
1.0000000000E+20
 34
1.0000000000E+20
 15
-1.0000000000E+20
 25
-1.0000000000E+20
 35
-1.0000000000E+20
146
0.0
 13
0.0
 23
0.0
 33
0.0
 16
1.0
 26
0.0
 36
0.0
 17
0.0
 27
1.0
 37
0.0
 76
     0
330
1B
  0
LAYOUT
  5
26
102
{ACAD_REACTORS
330
1A
102
}
330
1A
100
AcDbPlotSettings
  1

  2
none_device
  4

  6

 40
0.0
 41
0.0
 42
0.0
 43
0.0
 44
0.0
 45
0.0
 46
0.0
 47
0.0
 48
0.0
 49
0.0
140
0.0
141
0.0
142
1.0
143
1.0
 70
   688
 72
     1
 73
     0
 74
     5
  7

 75
    16
147
1.0
148
0.0
149
0.0
100
AcDbLayout
  1
Layout2
 70
     1
 71
     2
 10
0.0
 20
0.0
 11
0.0
 21
0.0
 12
0.0
 22
0.0
 32
0.0
 14
0.0
 24
0.0
 34
0.0
 15
0.0
 25
0.0
 35
0.0
146
0.0
 13
0.0
 23
0.0
 33
0.0
 16
1.0
 26
0.0
 36
0.0
 17
0.0
 27
1.0
 37
0.0
 76
     0
330
23
  0
LAYOUT
  5
22
102
{ACAD_REACTORS
330
1A
102
}
330
1A
100
AcDbPlotSettings
  1

  2
none_device
  4
Letter_(8.50_x_11.00_Inches)
  6

 40
6.35
 41
6.35
 42
6.35000508
 43
6.35000508
 44
215.9
 45
279.4
 46
0.0
 47
0.0
 48
0.0
 49
0.0
140
0.0
141
0.0
142
1.0
143
1.0
 70
  1712
 72
     1
 73
     0
 74
     0
  7

 75
     0
147
1.0
148
0.0
149
0.0
100
AcDbLayout
  1
Model
 70
     1
 71
     0
 10
0.0
 20
0.0
 11
279.4
 21
215.9
 12
0.0
 22
0.0
 32
0.0
 14
0.0
 24
0.0
 34
0.0
 15
279.4
 25
215.9
 35
0.0
146
0.0
 13
0.0
 23
0.0
 33
0.0
 16
1.0
 26
0.0
 36
0.0
 17
0.0
 27
1.0
 37
0.0
 76
     0
330
1F
331
29
  0
MLINESTYLE
  5
18
102
{ACAD_REACTORS
330
17
102
}
330
17
100
AcDbMlineStyle
  2
Standard
 70
     0
  3

 62
   256
 51
90.0
 52
90.0
 71
     2
 49
0.5
 62
   256
  6
BYLAYER
 49
-0.5
 62
   256
  6
BYLAYER
  0
ACDBPLACEHOLDER
  5
F
102
{ACAD_REACTORS
330
E
102
}
330
E
  0
SCALE
  5
48
102
{ACAD_REACTORS
330
47
102
}
330
47
100
AcDbScale
 70
     0
300
1:1
140
1.0
141
1.0
290
     1
  0
SCALE
  5
49
102
{ACAD_REACTORS
330
47
102
}
330
47
100
AcDbScale
 70
     0
300
1:2
140
1.0
141
2.0
290
     0
  0
SCALE
  5
4A
102
{ACAD_REACTORS
330
47
102
}
330
47
100
AcDbScale
 70
     0
300
1:4
140
1.0
141
4.0
290
     0
  0
SCALE
  5
4B
102
{ACAD_REACTORS
330
47
102
}
330
47
100
AcDbScale
 70
     0
300
1:5
140
1.0
141
5.0
290
     0
  0
SCALE
  5
4C
102
{ACAD_REACTORS
330
47
102
}
330
47
100
AcDbScale
 70
     0
300
1:8
140
1.0
141
8.0
290
     0
  0
SCALE
  5
4D
102
{ACAD_REACTORS
330
47
102
}
330
47
100
AcDbScale
 70
     0
300
1:10
140
1.0
141
10.0
290
     0
  0
SCALE
  5
4E
102
{ACAD_REACTORS
330
47
102
}
330
47
100
AcDbScale
 70
     0
300
1:16
140
1.0
141
16.0
290
     0
  0
SCALE
  5
4F
102
{ACAD_REACTORS
330
47
102
}
330
47
100
AcDbScale
 70
     0
300
1:20
140
1.0
141
20.0
290
     0
  0
SCALE
  5
50
102
{ACAD_REACTORS
330
47
102
}
330
47
100
AcDbScale
 70
     0
300
1:30
140
1.0
141
30.0
290
     0
  0
SCALE
  5
51
102
{ACAD_REACTORS
330
47
102
}
330
47
100
AcDbScale
 70
     0
300
1:40
140
1.0
141
40.0
290
     0
  0
SCALE
  5
52
102
{ACAD_REACTORS
330
47
102
}
330
47
100
AcDbScale
 70
     0
300
1:50
140
1.0
141
50.0
290
     0
  0
SCALE
  5
53
102
{ACAD_REACTORS
330
47
102
}
330
47
100
AcDbScale
 70
     0
300
1:100
140
1.0
141
100.0
290
     0
  0
SCALE
  5
54
102
{ACAD_REACTORS
330
47
102
}
330
47
100
AcDbScale
 70
     0
300
2:1
140
2.0
141
1.0
290
     0
  0
SCALE
  5
55
102
{ACAD_REACTORS
330
47
102
}
330
47
100
AcDbScale
 70
     0
300
4:1
140
4.0
141
1.0
290
     0
  0
SCALE
  5
56
102
{ACAD_REACTORS
330
47
102
}
330
47
100
AcDbScale
 70
     0
300
8:1
140
8.0
141
1.0
290
     0
  0
SCALE
  5
57
102
{ACAD_REACTORS
330
47
102
}
330
47
100
AcDbScale
 70
     0
300
10:1
140
10.0
141
1.0
290
     0
  0
SCALE
  5
58
102
{ACAD_REACTORS
330
47
102
}
330
47
100
AcDbScale
 70
     0
300
100:1
140
100.0
141
1.0
290
     0
  0
SCALE
  5
59
102
{ACAD_REACTORS
330
47
102
}
330
47
100
AcDbScale
 70
     0
300
1/128" = 1'-0"
140
0.0078125
141
12.0
290
     0
  0
SCALE
  5
5A
102
{ACAD_REACTORS
330
47
102
}
330
47
100
AcDbScale
 70
     0
300
1/64" = 1'-0"
140
0.015625
141
12.0
290
     0
  0
SCALE
  5
5B
102
{ACAD_REACTORS
330
47
102
}
330
47
100
AcDbScale
 70
     0
300
1/32" = 1'-0"
140
0.03125
141
12.0
290
     0
  0
SCALE
  5
5C
102
{ACAD_REACTORS
330
47
102
}
330
47
100
AcDbScale
 70
     0
300
1/16" = 1'-0"
140
0.0625
141
12.0
290
     0
  0
SCALE
  5
5D
102
{ACAD_REACTORS
330
47
102
}
330
47
100
AcDbScale
 70
     0
300
3/32" = 1'-0"
140
0.09375
141
12.0
290
     0
  0
SCALE
  5
5E
102
{ACAD_REACTORS
330
47
102
}
330
47
100
AcDbScale
 70
     0
300
1/8" = 1'-0"
140
0.125
141
12.0
290
     0
  0
SCALE
  5
5F
102
{ACAD_REACTORS
330
47
102
}
330
47
100
AcDbScale
 70
     0
300
3/16" = 1'-0"
140
0.1875
141
12.0
290
     0
  0
SCALE
  5
60
102
{ACAD_REACTORS
330
47
102
}
330
47
100
AcDbScale
 70
     0
300
1/4" = 1'-0"
140
0.25
141
12.0
290
     0
  0
SCALE
  5
61
102
{ACAD_REACTORS
330
47
102
}
330
47
100
AcDbScale
 70
     0
300
3/8" = 1'-0"
140
0.375
141
12.0
290
     0
  0
SCALE
  5
62
102
{ACAD_REACTORS
330
47
102
}
330
47
100
AcDbScale
 70
     0
300
1/2" = 1'-0"
140
0.5
141
12.0
290
     0
  0
SCALE
  5
63
102
{ACAD_REACTORS
330
47
102
}
330
47
100
AcDbScale
 70
     0
300
3/4" = 1'-0"
140
0.75
141
12.0
290
     0
  0
SCALE
  5
64
102
{ACAD_REACTORS
330
47
102
}
330
47
100
AcDbScale
 70
     0
300
1" = 1'-0"
140
1.0
141
12.0
290
     0
  0
SCALE
  5
65
102
{ACAD_REACTORS
330
47
102
}
330
47
100
AcDbScale
 70
     0
300
1-1/2" = 1'-0"
140
1.5
141
12.0
290
     0
  0
SCALE
  5
66
102
{ACAD_REACTORS
330
47
102
}
330
47
100
AcDbScale
 70
     0
300
3" = 1'-0"
140
3.0
141
12.0
290
     0
  0
SCALE
  5
67
102
{ACAD_REACTORS
330
47
102
}
330
47
100
AcDbScale
 70
     0
300
6" = 1'-0"
140
6.0
141
12.0
290
     0
  0
SCALE
  5
68
102
{ACAD_REACTORS
330
47
102
}
330
47
100
AcDbScale
 70
     0
300
1'-0" = 1'-0"
140
12.0
141
12.0
290
     0
  0
ENDSEC
  0
EOF
